Ads

Laconia (The Battle of Olympus) Guitar Tab

Submitted: Jun 04, 2009 by Alexander (Last updated: May 28, 2012)

5
Average: 5 (1 vote)
Download | Listen
Game: The Battle of Olympus
Composer(s): Kazuo Sawa
Style: Arrangement, Fingerstyle

AutoScroll: Slow | Medium | Fast
"Laconia" from The Battle of Olympus
Composed by Kazuo Sawa


auriplane thought a capo would be helpful. (It is :D)

Capo'ed version.
Standard tuning, capo on 5th.


e|--------------------0-1-|0-----------------------|----------------------0-|
B|--------0-1---0-1-3-----|--3-1-3---0-1-0---------|1-0-------0-3-1-0-1-3---|
G|----1-2-----2-----------|--------5-------2-1-----|----2-1-2---------------|
D|2-4---------------------|------------3-----2-----|------------------------|
A|0-----------0-----3-----|2-----------------------|3-----2-----0-----3-----|
E|------0-----------------|------4-----------------|------------------------|

e|1-0---0-----------0-----|--------------------0-1-|0-----------------------|
B|----3---3---3-1-3-------|--------0-1---0-1-3-----|--3-1-3---0-1-0---------|
G|----------5-------------|----1-2-----2-----------|--------5-------2-1-----|
D|------------0-----------|2-4---------------------|------------3-----2-----|
A|2-----------------------|0-----------0-----3-----|2-----------------------|
E|------4-----------4-----|------0-----------------|------4-----------------|

e|----------------------0-|1-0---0-----------------|5---5-3---3-1---1-0-----|
B|1-0-------0-3-1-0-1-3---|----3---3---3---0-------|--5-----3-----1-----3---|
G|----2-1-2---------------|----------5---5---2-----|----------------------5-|
D|------------------------|------------------------|------------------------|
A|3-----2-----3-----0-----|2-----0-----------0-----|3---3-2---2-0---0-------|
E|------------------------|------------4-----------|------------------4---4-|

e|------1-0-------1-0-----|5---5-3---3-1---1-0-----|------1-0---------------|
B|0-1-3-----3-1-0---------|--5-----3-----1-----3---|0-1-3-----3-1-0---------|
G|------------------------|----------------------5-|----------------1-2-----|
D|------------------------|------------------------|------------------------|
A|2---2-0---0-------2---2-|3---3-2---2-0---0-------|2---2-0---0-------0-----|
E|------------4---4-------|------------------4---4-|------------4-----------|
Login or Register to remove this ad.