Ads

Streets of Desolation (Batman) Bass/Guitar Tab

Submitted: Jul 20, 2011 by Sgt Reed

5
Average: 5 (3 votes)
Download | Listen
Game: Batman
Composer(s): Naoki Kadoka
Style: 2 or more instruments, Alternate picking, Transcription

This song is also called Stage 1

AutoScroll: Slow | Medium | Fast
Batman for the NES
Streets of Desolation
Composed by Nobuyuki Kun Kodaka San
Published in 1989 by Sunsoft
Tabber: Sgt Reed

					Guitar 1 (Melody) Standard Tuning

					Part A
|-----------------------------------------------------------------------------------------------|
|--------------------------------------------10----------------------------------11-------------|
|----11----12-11--------------------9-11--------12-11-9------------------9-11-12----12-11-------|
|--9----12-------12-9-----8-9-11-12---------------------10---------10-12------------------------|
|-----------------------------------------------------------10----------------------------------|
|-----------------------------------------------------------------------------------------------|

 You play this after part A the first time, then part A again, then this.
|----------------------------|				|-----------------------------|
|--10--10--------------------|				|--10--10---------------------|
|----------12-11-9-11-9------|				|----------11-9-11----9-------|
|-----------------------12-11|				|------------------12---11-12-|
|----------------------------|				|-----------------------------|
|----------------------------|				|-----------------------------|

				        Part B
|----------9-10-----10--9--10--12-------------9--10-------------------------------------------|
|-------12------12-----------------10-10--12--------12----12----------------------------------|
|----11------------------------------------------------12----12----12--------------12---------|
|--9------------------------------------------------------------12----12-9-12-9---------------|
|-------------------------------------------------------------------------------10----10-12-10|
|---------------------------------------------------------------------------------------------|

|----------9-14-12-10-12-10-9----9-----------|
|-----------------------------12---12-11-9-11|
|-------11-----------------------------------|
|----11--------------------------------------|
|--9-----------------------------------------|
|--------------------------------------------|

					Part C
|-----------------------------12-10-12-14------------------------------12----12-14--|
|--12-12----14-14----15-15------------------12-12----14-14----15-15-------15--------|
|--------11-------11-------11---------------------12-------12-------12--------------|
|-----------------------------------------------------------------------------------|
|-----------------------------------------------------------------------------------|
|-----------------------------------------------------------------------------------|

|-----------------------------14----14-15-14----15-14---15---14------------14---------|
|--14-14----15-15----17-17-------17----------17-------------------14-15-17----17-15-14|
|--------14-------14-------14---------------------------------------------------------|
|-------------------------------------------------------------------------------------|
|-------------------------------------------------------------------------------------|
|-------------------------------------------------------------------------------------|

|-----------------------------12-10-12-14------------------------------12----12-14--|
|--12-12----14-14----15-15------------------12-12----14-14----15-15-------15--------|
|--------11-------11-------11---------------------12-------12-------12--------------|
|-----------------------------------------------------------------------------------|
|-----------------------------------------------------------------------------------|
|-----------------------------------------------------------------------------------|

|-----------14-14----15-15----17-15-17-14-15----14---------14---------------------|
|--17-17-------------------------------------17----15--17------17--15--14---------|
|--------14-------14-------14----------------------------------------------16-----|
|---------------------------------------------------------------------------------|
|---------------------------------------------------------------------------------|
|---------------------------------------------------------------------------------|


					Guitar 2 (Harmony) Standard Tuning
The second guitar is pretty much the same as the first one, only it's played like a quarter of a second later to create
a delay effect. You have to really listen to the song to get the hang of it. There are a few minor differences.

					Part A
|-----------------------------------------------------------------------------------------------|
|--------------------------------------------10----------------------------------11-------------|
|----11----12-11--------------------9-11--------12-11-9------------------9-11-12----12-11-------|
|--9----12-------12-9-----8-9-11-12---------------------10---------10-12------------------------|
|-----------------------------------------------------------10----------------------------------|
|-----------------------------------------------------------------------------------------------|

 You play this after part A the first time, then part A again, then this.
|----------------------------|				|-----------------------------|
|----------------------------|				|-----------------------------|
|-9---9---12-11-9-11-9-------|				|-9---9---11-9-11-----9-------|
|-----------------------12-11|				|------------------12---11-12-|
|----------------------------|				|-----------------------------|
|----------------------------|				|-----------------------------|

					Part B (same as Guitar 1)
|----------9-10-----10--9--10--12-------------9--10-------------------------------------------|
|-------12------12-----------------10-10--12--------12----12----------------------------------|
|----11------------------------------------------------12----12----12--------------12---------|
|--9------------------------------------------------------------12----12-9-12-9---------------|
|-------------------------------------------------------------------------------10----10-12-10|
|---------------------------------------------------------------------------------------------|

|----------9-14-12-10-12-10-9----9-----------|
|-----------------------------12---12-11-9-11|
|-------11-----------------------------------|
|----11--------------------------------------|
|--9-----------------------------------------|
|--------------------------------------------|

					Part C
|-----------------------------12-10-12-14------------------------------12----12-14--|
|--12-12----14-14----15-15------------------12-12----14-14----15-15-------15--------|
|--------11-------11-------11---------------------12-------12-------12--------------|
|-----------------------------------------------------------------------------------|
|-----------------------------------------------------------------------------------|
|-----------------------------------------------------------------------------------|

|-----------------------------14----14-15-14-------------------------------14---------|
|--14-14----15-15----17-17-------17----------17-14--15--14--------14-15-17----17-15-14|
|--------14-------14-------14---------------------------------------------------------|
|-------------------------------------------------------------------------------------|
|-------------------------------------------------------------------------------------|
|-------------------------------------------------------------------------------------|

|-----------------------------12-10-12-14------------------------------12----12-14--|
|--12-12----14-14----15-15------------------12-12----14-14----15-15-------15--------|
|--------11-------11-------11---------------------12-------12-------12--------------|
|-----------------------------------------------------------------------------------|
|-----------------------------------------------------------------------------------|
|-----------------------------------------------------------------------------------|

|-----------14-14----15-15----17-15-17-14-15--------------------------------------|
|--17-17-------------------------------------17-----------------------------------|
|--------14-------14-------14-------------------14--------15----------16----------|
|---------------------------------------------------------------------------------|
|---------------------------------------------------------------------------------|
|---------------------------------------------------------------------------------|

				Bass 
                        There's a couple of low D notes in the bassline so the tuning
			is 1 sted down (DGCF).

Part A			
|-----------------|
|-----------------| x16, x8 on the second time.
|------7---9---7--|
|--9-9---9---7---9|

Then
|------------------------|
|------------------------| x4
|--------9----12---------|
|--10-10---10----10-12-10|

Then
|-----------------|
|----------4---6--| x3
|------6----------|
|--4-4---4---4---4|

Then this after the first time....           ...and this after the second.
|------------------------|                       |--------------------|
|--7-6-4-6-4-------------|                       |-------6-4-6--4-----|
|------------7-6---------|                       |------------7---6-7-|
|------------------------|                       |--------------------|

Part B
|------------------------------------------1---------------1------|
|------6---7-6---------6---7-6---------4-----4-1-------4-----4-1--|
|--4-4---4-----7---4-4---4-----7---2-2---2---------2-2---2--------|
|----------------4---------------4---------------2---------------2|

|-----------------------------------------------------------------|
|----------4---------------4---------------4---6-----6-----6---6--|
|------7-----7-4-------7-----7-4-------6--------------------------|
|--5-5---5-------0-5-5---5-------0-4-4---4---4---4-4---4-4---4---4|

Part C
|-----------------------------------------------------------------|
|----------4---6-----------4---6----------------------------------|
|--4-4-7-4---4---4-4-4-7-4---4---4-----4---6---7-------4---6---7--|
|----------------------------------5-5---5---5---5-5-5---5---5---5|

|-----------------------------------------------------------------|
|----------------------------------6-----6-----6---------4-6-4----|
|------6---7---9-------6---7---9-----6-----6---------6-7-------7-6|
|--7-7---7---7---7-7-7---7---7---7-----4-----4---4-4--------------|

|-----------------------------------------------------------------|
|----------4---6-----------4---6----------------------------------|
|--4-4-7-4---4---4-4-4-7-4---4---4-----4---6---7-------4---6---7--|
|----------------------------------5-5---5---5---5-5-5---5---5---5|

|-----------------------------------------------------------------|
|----------------------------------2-----2-----2---6-----6-----6--|
|------6---7---9-------6---7---9-----2-----2---------6-----6------|
|--7-7---7---7---7-7-7---7---7---7-----0-----0---0-----4-----4---4|
Login or Register to remove this ad.