Axis Chemical Factory (Batman) Guitar Tab

Submitted: Aug 03, 2014 by ltm_1988

0
Download | Listen
Game: Batman
Composer(s): Naoki Kadoka
Style: Arrangement, Fingerstyle

This song is also called Chemistry For Beginners

AutoScroll: Slow | Medium | Fast
Chemistry For Beginners (Axis Chemical Factory)
Batman
Naoki Kodaka
ltm_1988
7/19/14

     E  E  E  E  E  E  E  E     E  E  E  E  E  E  E  E     E  E  E  E  E  E  E  E     E  E  E  E  E  E  E  E     
E||--0--0-----L--------------|--0--0-----L--------------|--0--0-----L--------------|--3-----L-----------------|
B||--------------------------|--------------------------|--------------------------|--5-----L--7-----------L--|
G||*-4--4-----L--------------|--4--4-----L--------------|--4--4-----L--------------|-----------7-----------L--|
D||*-2--2-----2--------------|--2--2-----2--------------|--2--2-----2--------------|--------------------------|
A||-----------------0--2--3--|-----------------0--2--3--|-----------------0--2--3--|--3-----L--5-----------L--|
E||--------------------------|--------------------------|--------------------------|--------------------------|

     E  E  E  E  E  E  E  E     E  E  E  E  E  E  E  E     E  E  E  E  E  E  E  E     E  E  E  E  E  E  E  E     
E||--0--0-----L--------------|--0--0-----L--------------|--0--0-----L--------------|--3-----L-----------------|
B||--------------------------|--------------------------|--------------------------|--5-----L--7-----L--------|
G||--4--4-----L--------------|--4--4-----L--------------|--4--4-----L--------------|-----------7-----L--7--9--|
D||--2--2-----2--------------|--2--2-----2--------------|--2--2-----2--------------|--------------------7--9--|
A||-----------------0--2--3--|-----------------0--2--3--|-----------------0--2--3--|--3-----L--5-----L--5--7--|
E||--------------------------|--------------------------|--------------------------|--------------------------|

     E  E  E  E  E  E  E  E     E  E  E  E  E  E  E  E      
E||--------0-----L--0-----L--|--0--L--0--L--0--L--0--L--|
B||--------0-----L--0-----L--|--0--L--0--L--0--L--0--L--|
G||--------------------------|--------------------------|
D||--------------------------|--------------------------|
A||-----------------5--7--L--|--------------5--6--7-----|
E||--0--L--0--L--7-----------|--0--L--0--L-----------0--|

     E  E  E  E  E  E  E  E     E  E  E  E  E  E  E  E     E  E  E  E  E  E  E  E     E  E  E  E  E  E  E  E     
E||--4--L--5--L--------0-----|-----------------------5--|--7--0--L--0-----------L--|--3-----L--2-----------L--|
B||--------------0--L--5-----|-----------2--L--3--------|--0-----------------------|--1-----L--3-----------L--|
G||--1--L--2--L--4--L-----7--|--------L-----------6-----|--------------------------|-----5-----5-----7-----7--|
D||--------------------------|-----------------------7--|-----2--L--2-----------L--|--------------------------|
A||--------2-----------5--7--|--L-----5-----4-----5--7--|--L-----2-----5--7-----L--|--3-----3-----5-----5-----|
E||--0--0-----0-----0--------|-----0-----0-----0--------|-----0-----0--------------|--------------------------|

     E  E  E  E  E  E  E  E     E  E  E  E  E  E  E  E     E  E  E  E  E  E  E  E     E  E  E  E  E  E  E  E       
E||--4--L--5--L--------0-----|-----------2--L--3-----10-|--0-----L--7-----------L--|--3-----L--2-----------L--|
B||--------------0--L--5-----|--------------------7-----|-----------0-----------L--|--1-----L--3-----------L--|
G||--1--L--2--L--4--L-----7--|--------L--------0-----7--|--------------------------|-----5-----5-----7-----7--|
D||--------------------------|-----------4--L-----------|--2-----------------------|--------------------------|
A||--------2-----------5--7--|--L-----5-----4-----9--7--|--L-----2-----5--7-----L--|--3-----3-----5-----5-----|
E||--0--0-----0-----0--------|-----0-----0-----0--10----|-----0-----0--------------|--------------------------|

     E  E  E  E  E  E  E  E     E  E  E  E  E  E  E  E     E  E  E  E  E  E  E  E     E  E  E  E  E  E  E  E     
E||--1--1--1--1--1--1--1--3--|--L-----------------7-----|-----2--2--2--2--2--2--3--|--L--3--3--3--2-----2--3--|
B||--------------------0--1--|--L--8--8--8--8--10----7--|--L-----------------0--1--|--L--1--1--------5--------|
G||--4--4--4--4--4--4--2--4--|--------------------------|--L--4--4--4--4--4--2--4--|--------4--5--5--5--5--5--|
D||--------4-----------------|-----10-10-10-10-10-10-9--|--------4-----------------|--------------------------|
A||--2--2-----2--2--2--------|--------10----------------|--2--2-----2--2--2--------|-----------3--3--3--3--3--|
E||--------------------------|-----------8--8--8--8--8--|--------------------------|--------------------------|

     E  E  E  E  E  E  E  E     E  E  E  E  E  E  E  E     E  E  E  E  E  E  E  E     E  E  E  E  E  E  E  E     
E||--1--1--1--1--1--1--1--3--|--L-----------------7-----|-----2--2--2--2--2--2--3--|--L--3--3--3--3--3--3--5--|
B||--------------------0--1--|--L--8--8--8--8--10----7--|--L-----------------0--1--|--L--------------------3--|
G||--4--4--4--4--4--4--2--4--|--------------------------|--L--4--4--4--4--4--2--4--|-----5--5--5--5--5--5-----|
D||--------4-----------------|-----10-10-10-10-10-10-9--|--------4-----------------|--------5-----------------|
A||--2--2-----2--2--2--------|--------10----------------|--2--2-----2--2--2--------|--3--3-----3--3--3--3--3--|
E||--------------------------|-----------8--8--8--8--8--|--------------------------|--------------------------|

     E  E  E  E  E  E  E  E     E  E  E  E  E  E  E  E     
E||--L--5--5--5--5--5--5--7--|--L--L--------L--10----L--|
B||--L--------------------7--|--L--7--------L--10----L--|
G||-----7--7--7--7--7--L--5--|--7--4--------------------|
D||--------7-----------------|--------4--L--9--L-----9--|
A||--5--5-----5--5--5--5-----|--------------------9-----|
E||--------------------------|--------------------------|

     E  E  E  E  E  E  E  E     E  E  E  E  E  E  E  E     E  E  E  E  E  E  E  E     E  E  E  E  E  E  E  E     
E||--0--L-----0-----0-----L--|--------------------------|--------------------------|--------------------------|
B||--0--L-----0-----0-----L--|--3--L-----3-----3-----L--|--1--L-----1-----1-----L--|--3--0-----3-----3-----0--|
G||--------------------------|--2--L-----2-----2-----L--|--0--L-----0-----0-----L--|--2--L-----4-----4-----L--|
D||--------------------0--2--|--------------------0--2--|--------------------0--2--|--------------------------|
A||--------2-----2-----------|--------2-----2-----------|--------2-----2-----------|--2-----2--0--2--0--2-----|
E||--0--0-----0-----0--------|--0--0-----0-----0--------|--0--0-----0-----0--------|--------------------------|

     E  E  E  E  E  E  E  E     E  E  E  E  E  E  E  E     E  E  E  E  E  E  E  E     E  E  E  E  E  E  E  E   x3 W 
E||--0--L-----0-----0-----L--|--------------------------|--------------------------|--------------------------||--0-
B||--0--L-----0-----0-----L--|--3--L-----3-----3-----L--|--1--L-----1-----1-----L--|--0--L-----0-----0-----L--||--0-
G||--------------------------|--2--L-----2-----2-----L--|--0--L-----0-----0-----L--|-----4-----4-----4-----4-*||--1-
D||--------------------0--2--|--------------------0--2--|--------------------0--2--|--4--L-----4-----4-----L-*||--2-
A||--------2-----2-----------|--------2-----2-----------|--------2-----2-----------|--2-----2-----2-----2-----||--2-
E||--0--0-----0-----0--------|--0--0-----0-----0--------|--0--0-----0-----0--------|--------------------------||--0-
Login or Register to remove this ad.