Ads

Bartender (Bartender) Guitar Tab

Submitted: Mar 26, 2012 by cyx77

5
Average: 5 (9 votes)
Download | Listen
Game: Bartender
Composer(s): Natural High
Style: Arrangement, Fingerstyle

This song is also called Opening Theme

AutoScroll: Slow | Medium | Fast
     		 	       Bartender                                     
		Artist: Natural High ft. Junpei Shiina
		   Arranged By : Gianfranco Addante


Standard Tuning (Capo 1)



     E  E  E  Q    E  E  E     E  E  E  Q    E  E  E     Q.     H        E   
E||----------------------0--|--L--3--4--5-------------|------------------4--|
B||--1-----1--0----1--3--1--|-----------3----5--3-----|--1------1-----------|
G||--------2--0----0--------|-----------2----------5--|--2------2--------1--|
D||--2--2-------------------|-----------0-------------|---------------------|
A||--0-------------------3--|-------------------------|---------------------|
E||-----------3-------------|-------------------------|--1------1--------0--|


  E  Q    Q    E  E  E     E  E  E  E  E  E  E  E     E   E  E  H        E   
--L--3----1-------------|--------------------------|------0--L--------------|
---------------1--3--L--|--3--1--3--1--3--1-----1--|--3h--------3--------1--|
--L---------------------|--2-----2-----2-----2-----|--0---------------------|
------------------------|--------------------------|------------------------|
------------------------|--0-----------------------|------------------------|
--L---------------------|--------------------------|--3------3--------------|


  E  E  E  E  E  E  E  E     E  Q    H        E     E  E  E  E  E  E  E  E   
-----------------0--3--0--|----------------------|--0-----------------------|
--3--1--3--1--3-----------|--3--1-------------3--|-----3--3--1--3--1-----1--|
--0-----0-----0-----------|--2-------2-----------|--2-----------------2-----|
--------------------------|--0-------------------|--------------------------|
--3-----------------------|----------------------|--------------------------|
--------------------------|----------------------|--1-----------------------|


  E  E  E  H        E     E  E  E  Q    E  E  E     E  E  E  E  H         
--0--3--1--0-----------|--0----------------------|--1--0-----0--L--------|
--1--------1--------1--|--3--3--3--1-------1--3--|--------3--------------|
--0--------0-----------|--2-------------2--------|--1--------1-----------|
-----------------------|--0----------------------|-----------------------|
--3--------3-----------|-------------------------|-----------------------|
-----------------------|-------------------------|--0--------0-----------|


  E  E  E  E  E  E  E  E     E   E  E  H        E     E  E  E  E  E  E  E  E   
--------------------------|------0-----------------|-----------------0--3--0--|
--3--1--3--1--3--1-----1--|--3h--------3--------1--|--3--1--3--1--3-----------|
--2--2-----2-----2--2-----|--0---------------------|--0-----0-----0-----------|
--------------------------|------------------------|--------------------------|
--0-----------------------|------------------------|--3-----------------------|
--------------------------|--3------3--------------|--------------------------|


  E  E  E  H        E     E  E  E  E  E  E  E  E     E  E  E  H        E   
-----------------------|--0-----------------------|--0--3--1--0-----------|
--3--1--------------3--|-----3--3--1--------1--3--|--1--------1--------1--|
--2--------2-----------|--2--------------2--------|--0--------0-----------|
--0-----0--------------|--------------------------|-----------------------|
-----------------------|--------------------------|--3--------3-----------|
-----------------------|--1-----------1-----------|-----------------------|


  E  E  E  E  E  E  E  E     E  E  E  E  H           E  E  E  S E  S E  E  S S  
--0-----------------------|--1--0-----0--L--------|--------0--L----------------|
--3--3--3--1--1-----1--3--|--------3--------------|-------------3-------3--L-1-|
--2--2--2--------2--------|--1--------1-----------|-----2-------1-------1----2-|
--0-----------------------|-----------------------|------------------2---------|
--------------------------|-----------------------|--------------------------0-|
--------------------------|--0--------0-----------|--1----------0--------------|


  S S E  E  S E  S E  E  E     E  E  E  E  E  E  E  E   
----------------------------|--------------------------|
--L------1--L-0----3--0-----|-----------------------1--|
---------0----0----------0--|--2--0--0--0-----0--2-----|
------2---------------------|--------------------------|
----------------------------|--------------------------|
--------------3-------------|--1--------3--------------|


  Q    E  E  E  E  E  E     E  E  E  S E  S E  E  S S  
----------------3--0-----|--------3--L-1-------1--L-0-|
--3-------1--3--------1--|-----1--------------------1-|
--0----------------------|-------------1----2-------2-|
-------------------------|----------------------------|
--3----------------------|--------------------------0-|
-------------------------|--1----------0--------------|


  S S E  E  S E  S E  E  E     E  E  E  E  E  E  E  E   
--L------0--L---------------|--1--0--------------------|
--------------3----1--1--3--|--------3--1--0-----0--1--|
------2-------0-------------|--2--------------2--------|
----------------------------|--------------------------|
----------------------------|--------------------------|
--------------3-------------|--1-----------1-----------|


  E  Q    Q    E  E  E     H.           S S S S    Q    Q    E  E  E  E   
-----1----0-------0--L--|--L--------------------|--0----0-------0--4--5--|
--3-------0----3--2-----|-----------------0-1-3-|------------3-----------|
--0-------1-------2-----|---------------2-------|--2----2----1-----------|
------------------2-----|-----------------------|------------------------|
------------------0-----|-----------------------|------------------------|
--3-------0-------------|-----------------------|--1----1----0-----------|


  E  E  E  E  Q.     E     Q    E.  S E  E  E  E     E  E  E  Q    E  Q     
--L--0------------------|--3----3---3-1--0--------|----------------0--L----|
-----1--3--1--L------1--|-------------------3--3--|--L--2--3--3----2-------|
-----2--2--2--L------2--|--2----2---2-1-----------|-----2--2--2----2-------|
------------------------|-------------------------|------------------------|
--0---------------------|-------------------------|--0-------------0-------|
------------------------|--1----------0-----------|------------------------|


  Q    Q    E  E  E  E     E  E  E  H        E     Q    E.  S E  E  E  E   
--0----0-------0--4--5--|--L--7--8--0--------0--|--3----3---3-1--0--------|
------------3-----------|-----5--5--1-----------|-------------------3--3--|
--2----2----1-----------|-----5--5--2-----------|--2----2-----1--------2--|
------------------------|-----------------------|-------------------------|
------------------------|--0--------0-----------|----------------------0--|
--1----1----0-----------|-----------------------|--1----------0-----------|


  E  Q.     E  E  E  E     W                   E  Q    H        E   
------------5--3--0--5--|--L----------------|--3--7----7--------3--|
--L--2---------------3--|--L----------------|--3--3----3--------L--|
-----2---------------2--|--L----------------|--4--4----4--------2--|
---------------------0--|--L----------------|----------------------|
------------------------|-------------------|----------------------|
------------------------|-------------------|--3--3----3--------1--|


  E  E  E  Q    E  E  E     E  E  E  E  E  E  E  E     Q    Q    E.  E.  E   
--L--1--0--1----1--5--3--|--L-----------------------|--0---------0----------|
-------------------------|-----6--5--3-----------L--|----------------1------|
--L--2-----2----2-----4--|-----4--4--4-----5--4-----|--2---------2-------2--|
-------------------------|--------------------------|-----------------------|
-------------------------|--------------------------|-----------------------|
--L--------1----1-----3--|--------------3-----------|--1----1----1----------|


  Q.     H        E     E  E  E  Q    E  E  E     E  E  E  Q    E  E  E   
------------------3--|--L--1--0--1----1--5--3--|--L----------------------|
--3------0-----------|-------------------------|-----6--5--3-------------|
--0------0--------2--|-----------2----------4--|-----4--4--4----5--4--4--|
---------------------|-------------------------|-------------------------|
---------------------|-------------------------|----------------------0--|
--3------3--------1--|-----------1----------3--|-------------------------|


  H        H          
--------------------||
--------------------||
--2-----------------||
--2-----------------||
--------------------||
--------------------||
Login or Register to remove this ad.

4 comments on Bartender

Nice one, haven't seen a

Nice one, haven't seen a bartender tab in ages

Thanks

No one ever tabs this series and I loved the intro so I thought I might give it a shot.

ah

ah nvm i found out it wasnt tab but the piano transcription of moscow mule that i was tryin to play on guitar, haha

never played this game lol it

5

never played this game lol it looks funny but damn that was a great song.