Ads

Hailfire Peaks (Icy Side) (Banjo-Tooie) Ukulele Tab

Submitted: Mar 19, 2012 by magicaxis

0
Download | Listen
Game: Banjo-Tooie
Composer(s): Grant Kirkhope
Style: Transcription

AutoScroll: Slow | Medium | Fast
The theme from the Icy Side of Hailfire Peaks
From Banjo-Tooie
15/03/2012
By rare software
Tabbed by magicaxis


|-------------------------------|2-2-2-2-2-3--------------------
|----0-3-4-3----00-3-4-3-0------|0-----------3-3-34323-0--------
|0---------------------------0--|0-----------------------343234-
|-------------------------------|0------------------------------

|-------------------------------|2-2-2-2-2-3-----1-1-1-2-3------
|----0-3-4-3----00-3-4-3-0------|0-----------3-3--3-3-----------
|0---------------------------0--|0-------------------------0-0--
|-------------------------------|0------------------------------
Login or Register to remove this ad.