Ads

Glitter Gulch Mine (Banjo-Tooie) Guitar Tab

Submitted: Jun 02, 2021 by judgexii (Last updated: Jun 11, 2021)

5
Average: 5 (3 votes)
Download | Listen
Game: Banjo-Tooie
Composer(s): Grant Kirkhope
Style: Arrangement, Fingerstyle

AutoScroll: Slow | Medium | Fast
"Glitter Gulch Mine" - Banjo-Tooie
Composers: Grant Kirkhope
Arrangement: judgexii
Tuning: Standard EADGBe
BPM : 130 (4/4 time)

   Intro
   C             F               C             G7
   |-3-|  |-3-|  |-3-|  |-3-|    |-3-|  |-3-|  |-3-|  |-3-|
e-----------------------------|-----------------------------|
B-----------------------1-----|--------------------0--3---0-|
G------0------0------2------2-|------0------0--0------------|
D---------2------3------------|---------2-------------------|
A--3--------------------------|--3--------------------------|
E-----------------------------|-----------------------------|

   C             F               G7            C      G7
   |-3-|  |-3-|  |-3-|  |-3-|    |-3-|  |-3-|  |-3-|  |-3-|
e-----------------------------|-----------------------------||
B-----------------------1-----|------0--3---0--1----------0-||
G------0------0------2------2-|--0--------------------0-2---||
D---------2------3------------|-----------------------------||
A--3--------------------------|-----------------------------||
E-----------------------------|-----------------------------||

   Part 1 - Coda
   C             F               C             G7
   |-3-|  |-3-|  |-3-|  |-3-|    |-3-|  |-3-|  |-3-|  |-3-|  
e-----------------------------|-----------------------------|
B--1--------------------------|-----------------------------|
G---------0---0--2------0-----|--0---2--0-------------0-----|
D---------2---2---------3-----|---------2---3--2------3-----|
A--3--------------------------|--3----------3---------------|
E----------------1------------|----------------3------------| 

				 Part 1 First Ending		 Part 1 Second Ending
   C             F               G7            C      G7         G7            C      G7
   |-3-|  |-3-|  |-3-|  |-3-|    |-3-|  |-3-|  |-3-|  |-3-|      |-3-|  |-3-|  |-3-|  |-3-|
e-----------------------------|-----------------------------| |-----------------------------||
B--1--------------------------|---------0------1----------0-| |--0------0---3--1------------||
G---------0---0--2------0-----|--0---2----------------0-2---| |------2----------------0-----||
D---------2---2---------3-----|---------3------2------3-----| |---------3------2------3-----||
A--3--------------------------|-----------------------------| |-----------------------------||
E----------------1------------|--3--------------------3-----| |--3--------------------3-----|| To Part 4 Preamble after Coda

   Part 2
   C             F               C             G7
   |-3-|  |-3-|  |-3-|  |-3-|    |-3-|  |-3-|  |-3-|  |-3-|
e--0--------------------------|--0------0---1--0------------|
B---------1------1------------|------3----------------3-----|
G---------0---0---------0-----|---------0---0---------------|
D---------2---2---------3-----|---------2---2---------3-----|
A--3--------------------------|--3--------------------------|
E----------------1------------|----------------3------------|
   
   Part 2 First Ending					         Part 2 Second Ending
   C             F               G7            C      G7         C             F               G7            C      
   |-3-|  |-3-|  |-3-|  |-3-|    |-3-|  |-3-|  |-3-|  |-3-|      |-3-|  |-3-|  |-3-|  |-3-|    |-3-|  |-3-|  |-3-|  |-3-|
e--0--------------------------|----------------0------------| |----------------0------------|-----------------------------||
B---------1------1------------|--0---1--3-------------------| |--1------1---3---------1-----|--0---1--3---0--1------------||
G---------0---0---------0-----|-----------------------0-----| |---------0---0---------2-----|-----------------------0-----||
D---------2---2---------3-----|---------3-------------3-----| |---------2---2---------3-----|---------3-------------2-----||
A--3--------------------------|----------------3------------| |--3--------------------------|----------------3------3-----||
E----------------1------------|--3------3-------------3-----| |----------------1------------|--3--------------------------||

  Part 3
   Am                            G                             F                             G
   |-3-|  |-3-|  |-3-|  |-3-|    |-3-|  |-3-|  |-3-|  |-3-|    |-3-|  |-3-|  |-3-|  |-3-|    |-3-|  |-3-|  |-3-|  |-3-|
e-----------------------------|-----------------------------|-----------------------------|-----------------------------|
B---------1---1------0--1-----|--0--------------------------|---------1---1------0--1-----|--0-------------------(0)----|
G--2------2---2--2------2-----|---------0------0------------|--2------2---2--2------2-----|---------0---0---------0-----|
D---------2---2---------2-----|---------0---0---------0-----|---------3---3---------3-----|---------0---0---------0-----|
A--0--------------------------|---------2---2---------2-----|-----------------------------|-----------------------------|
E----------------0------------|--3-------------3------------|--1-------------1------------|--3-------------3------------|

   E7                            Am                            F                             G7
   |-3-|  |-3-|  |-3-|  |-3-|    |-3-|  |-3-|  |-3-|  |-3-|    |-3-|  |-3-|  |-3-|  |-3-|    |-3-|  |-3-|  |-3-|  |-3-|
e-----------------------------|--0------------------------0-|--1------0------1------------|--3---3--1-------------------||
B--0-----(0)-----0---1--3-----|---------1------1------1-3---|---------1---1---------3---3-|----------------3------0-----||
G---------1---1---------1-----|---------2---2---------2-----|---------2---2---------2-----|---------0-------------------||
D---------2---2---------2-----|---------2---2---------2-----|---------3---3---------3-----|---------3-------------3-----||
A-----------------------------|--0-------------3------------|-----------------------------|-----------------------2-----||
E--4-------------0------------|-----------------------------|--1-------------1------------|--3-------------3------------|| To Coda


   Part 4 Preamble
   |-3-|  |-3-|  |-3-|  |-3-|    |-3-|  |-3-|  |-3-|  |-3-|  
e-----------------------------|-----------------------------||
B-----------------------------|---------1------0------------||
G-----------------------------|--0--------------------3-----||
D--2------2---2--3------4-----|----------------0------2-----||
A--3------3---3--2------2-----|--1------3-------------------||
E-----------------------------|-----------------------------||

   Part 4
   F
   |-3-|  |-3-|  |-3-|  |-3-|    |-3-|  |-3-|  |-3-|  |-3-|    |-3-|  |-3-|  |-3-|  |-3-|    |-3-|  |-3-|  |-3-|  |-3-|
e-----------------------------|-----------------------------|-----------------------------|-----------------------------|
B-----------------------------|-----------------------------|-----------------------------|---------1------1------------|
G---------2---2---------2-----|---------2---2---------2-----|--2------2------2---0------1-|--2------2---2---------2---1-|
D---------3---3---------3-----|---------3---3---------3-----|---------3---3---------3-----|---------3---3---------3-----|
A----------------3------------|----------------3------------|----------------3------3-----|----------------3------------|
E--1--------------------------|--1--------------------------|--1--------------------------|--1--------------------------|

                                 Eb
   |-3-|  |-3-|  |-3-|  |-3-|    |-3-|  |-3-|  |-3-|  |-3-|    |-3-|  |-3-|  |-3-|  |-3-|    |-3-|  |-3-|  |-3-|  |-3-|
e-----------------------------|-----------------------------|-----------------------------|-----------------------------|
B-----------------------------|---------4---4---------4-----|---------4---4---------4-----|---------4---4---------4-----|
G--2------2------2---0--------|--0------3---3---------3-----|--0------3---3---------3-----|--0------0------0------3-----|
D---------3---3---------3---4-|--1------1------1------1---4-|--1------1------1------1---4-|--1------1---1------3--1---3-|
A----------------3------3-----|----------------1------------|----------------1------------|----------------1------------|
E--1--------------------------|-----------------------------|-----------------------------|-----------------------------|

                                                               F
   |-3-|  |-3-|  |-3-|  |-3-|    |-3-|  |-3-|  |-3-|  |-3-|    |-3-|  |-3-|  |-3-|  |-3-|    |-3-|  |-3-|  |-3-|  |-3-|
e-----------------------------|-----------------------------|-----------------------------|-----------------------------|
B---------4-------------4-----|---------4---4---------4-----|-----------------------------|-----------------------------|
G--0------3------3------3-----|--0------0------0------3-----|---------2---2---------2-----|---------2---2---------2---1-|
D--1------1---1---------1---4-|--1------1---1------3--1---2-|--3------3---3---------3-----|--3------3---3---------3-----|
A----------------1------------|----------------1------------|----------------3------------|----------------3------------|
E-----------------------------|-----------------------------|--1--------------------------|--1--------------------------|

                                                                                             Eb
   |-3-|  |-3-|  |-3-|  |-3-|    |-3-|  |-3-|  |-3-|  |-3-|    |-3-|  |-3-|  |-3-|  |-3-|    |-3-|  |-3-|  |-3-|  |-3-|
e-----------------------------|-----------------------------|-----------------------------|-----------------------------|
B-----------------------------|---------1------1------------|-----------------------------|---------4---4---------4-----|
G--2------2------2---0------1-|--2------2---2---------2---1-|--2------2------2---0--------|--0------3---3---------3-----|
D---------3---3---------3-----|---------3---3---------3-----|---------3---3---------3---4-|--1------1------1------1---4-|
A----------------3------3-----|----------------3------------|----------------3------3-----|----------------1------------|
E--1--------------------------|--1--------------------------|--1--------------------------|-----------------------------|

                                                                                                                  E
   |-3-|  |-3-|  |-3-|  |-3-|    |-3-|  |-3-|  |-3-|  |-3-|    |-3-|  |-3-|  |-3-|  |-3-|    |-3-|  |-3-|  |-3-|  |-3-|
e-----------------------------|-----------------------------|-----------------------------|-----------------------------|
B---------4---4---------4-----|---------4---4---------4-----|---------4-------------4-----|---------4---4---------5-----|
G--0------3---3---------3-----|--0------0------0------3-----|--0------3------3------3-----|--0------0------0------4-----|
D--1------1------1------1---4-|--1------1---1------3--1---3-|--1------1---1---------1---4-|--1------1---1------3--2---2-|
A----------------1------------|----------------1------------|----------------1------------|----------------1------------|
E-----------------------------|-----------------------------|-----------------------------|-----------------------------|
   
   F                                           G7
   |-3-|  |-3-|  |-3-|  |-3-|    |-3-|  |-3-|  |-3-|  |-3-|
e-----------------------------|-----------------------------||
B-----------------------------|-----------------------0-----||
G---------2---2---------2-----|---------2---2--0------0-----||
D--3------3---3---------3-----|--3------3---3---------3-----||
A----------------3------------|-----------------------------||
E--1--------------------------|--1-------------3------------|| Back to Intro

Note Legend
-----------
w - whole
h - half
q - quarter
e - eighth
. - dotted
|-3-| - triplet eighths

Tab Legend
-----------
() - continue holding note
h - hammer on
p - pull off
/ - slide up
\ - slide down
<> - natural harmonic
^ - brush up
x - slap string
Login or Register to remove this ad.

3 comments on Glitter Gulch Mine

Part 3 Correction

Part 3 A minor chords fixed...
  Part 3
   Am                            G                             F                             G
   |-3-|  |-3-|  |-3-|  |-3-|    |-3-|  |-3-|  |-3-|  |-3-|    |-3-|  |-3-|  |-3-|  |-3-|    |-3-|  |-3-|  |-3-|  |-3-|
e-----------------------------|-----------------------------|-----------------------------|-----------------------------|
B---------1---1------0--1-----|--0--------------------------|---------1---1------0--1-----|--0-------------------(0)----|
G--2------2---2--2------2-----|---------0------0------------|--2------2---2--2------2-----|---------0---0---------0-----|
D---------2---2---------2-----|---------0---0---------0-----|---------3---3---------3-----|---------0---0---------0-----|
A--0--------------------------|---------2---2---------2-----|-----------------------------|-----------------------------|
E----------------0------------|--3-------------3------------|--1-------------1------------|--3-------------3------------|

   E7                            Am                            F                             G7
   |-3-|  |-3-|  |-3-|  |-3-|    |-3-|  |-3-|  |-3-|  |-3-|    |-3-|  |-3-|  |-3-|  |-3-|    |-3-|  |-3-|  |-3-|  |-3-|
e-----------------------------|--0------------------------0-|--1------0------1------------|--3---3--1-------------------||
B--0-----(0)-----0---1--3-----|---------1------1------1-3---|---------1---1---------3---3-|----------------3------0-----||
G---------1---1---------1-----|---------2---2---------2-----|---------2---2---------2-----|---------0-------------------||
D---------2---2---------2-----|---------2---2---------2-----|---------3---3---------3-----|---------3-------------3-----||
A-----------------------------|--0-------------3------------|-----------------------------|-----------------------2-----||
E--4-------------0------------|-----------------------------|--1-------------1------------|--3-------------3------------|| To Coda

Hell yes! Have wanted a tab

Hell yes! Have wanted a tab of this for many years. Great job!

cool stuff

cool stuff