Glitter Gulch Mine (Banjo-Tooie) Banjo Tab

Submitted: Mar 03, 2014 by archard (Last updated: Jul 28, 2016)

3.25
Average: 3.3 (4 votes)
Download | Listen
Game: Banjo-Tooie
Composer(s): Grant Kirkhope
Style: Transcription

AutoScroll: Slow | Medium | Fast
Glitter Gulch Mine
Tabbed by bryce

D-----------------------------------------------------
B----1-------------------------1-----------------0---1
G-------0-0-2-0-0-2-0-------0-----0-0-2-0---0--2------
D----------------------3-2----------------------------
G-----------------------------------------------------

------------------------------------------------------
-----1-------------------------1-----------------3---1
--------0-0-2-0-0-2-0-------0-----0-0-2-0--4-2-4------
-----------------------3-2----------------------------
------------------------------------------------------

---2---------2------2-3-2-----2--------------------2
-----1-1--------3----------3-------1-1---0---1-3----
----------0----------------------------0------------
----------------------------------------------------
----------------------------------------------------

---2---------2------2-3-2-------------2-------------
-----1-1--------3----------3--1---1-3---1--0-1-3-0-1
----------0-----------------------------------------
----------------------------------------------------
----------------------------------------------------

----------------------------------------------
---------------------------------------3-5----
-2-2-4-5-4-0---0----2-2-4-5-4----4-4-5-----5-5
-------------2--------------------------------
----------------------------------------------

-------------------5-5--3--0---
-3-5-6--5--6--3-3-------------0
-------------------------------
-------------------------------
-------------------------------

------------------------------------------------------
-----1-------------------------1-----------------0---1
--------0-0-2-0-0-2-0-------0-----0-0-2-0---0--2------
-----------------------3-2----------------------------
------------------------------------------------------

------------------------------------------------------
-----1-------------------------1-----------------3---1
--------0-0-2-0-0-2-0-------0-----0-0-2-0--4-2-4------
-----------------------3-2----------------------------
------------------------------------------------------

--------------10-9-8-7
-5-5-5-6-7-8----------
----------------------
----------------------
----------------------

-7-7-7-5-3-6-7-10-10--6-7-7-7-5-3-4-5----
--------------------------------------4-4
-----------------------------------------
-----------------------------------------
-----------------------------------------

-4-5-5-5-3---4-5-8-8--4-5-5-5-3-------7--
-----------4--------------------4-5-6----
----------------------------------------5
-----------------------------------------
-----------------------------------------

-6-7-7-7-5-3-6-7-10-10--6-7-7-7-5-3-4-5----
----------------------------------------4-4
-------------------------------------------
-------------------------------------------
-------------------------------------------

-4-5-5-5-3---4-5-8-8--4-5-5-5-3-------7--
-----------4--------------------4-5-6----
----------------------------------------5
-----------------------------------------
-----------------------------------------
Login or Register to remove this ad.

5 comments on Glitter Gulch Mine

I don't get it. I really

I don't get it. I really don't recognize the tune. As in it doesn't sound like the original song.

The last comment is horribly wrong

5

I just got my banjo this week and I was able to tune it by ear with this tab you have made. You did an excellent job, so don't listen to the fool that already commented.

If you would make more banjo-kazooie tabs i would cream my jeans.

forgot my old acct things

hey thanks man i' try. i forgot all of my other account things so i got a new one. i'm not sure if i'll be able to make every banjo-kazooie song cuz the 5-string banjo can't really go that low but ill try.

Awesome sauce!

5

What ever you can do will be amazig!
I'm really excited to learn songs from my favourite game.
This means allot to me, so thank you verry much.

I don't get it

Looks like a banjo tab written by a guitarist. Why would you flatpick a banjo?