Ads

Spiral Mountain (Banjo-Kazooie) Guitar Tab

Submitted: Dec 27, 2016 by luigikart64

5
Average: 5 (2 votes)
Download | Listen
Game: Banjo-Kazooie
Composer(s): Grant Kirkhope
Style: Arrangement, Fingerstyle, Trill

AutoScroll: Slow | Medium | Fast
q=quarter note
e= eight note
e.= dotted eight note
s=sixteenth note

Section A
    
    q  q  s e s e e       q    e. s e   e    e   e    e.  s e    e  q   e  e
e|--3--3--3-3-5-3------|---------------------------|--------------------------|
B|--3--3--3-3-----3----|--1----1--3-1--------------|-------------0--1---0-----|
G|--4--4--4-4----------|-----------------0---0-----|--2---1-2--------------2--|
D|--3--3--3-3----------|---------------------------|--------2-----------------|
A|---------------------|--3---------3------------3-|--0-------------0---0-----|
E|---------------------|-------3-------------3-----|-----------------------4--|


   q    e. s e  e  e  e   q   q   e  e  e  e     q   e.  s e  e  e  e     e. s e  e  q    e  e
e|----------------------|----------------------|------------------------|-0----0-----------------|
B|----------------------|------------------0---|-1---1---3-1------------|----4----3--1----1--2---|
G|-0----0--2-0----------|------------0--2------|--------------0--0------|------------------------|
D|------0-------2--3--0-|-2--------------------|------------------------|-2------------------2---|
A|-----------------0--2-|-3-------3--2--0------|-3---------3---------3--|------------0----0------|
E|-3---------3--3-------|-----3------------3---|-----3-----------3------|------4-----------------|


   q    e. s q    q      e. s e  e  e  e  e  e    q    e. s e  e  q      q    e. s e  e  e  e   
e|---------0-----------|------------------------|----------------------|-------------------------|
B|-3----3----3---------|-0----0--------------0--|-1----1--3-1----------|-1----1--3-1-------------|
G|----------------2----|----3----2--0--0--2-----|--------------0--0----|--------------1--1-------|
D|-0---------0---------|------0-----------------|----------------------|-----------------0--2----|
A|------0---------0----|------------------0--2--|-3---------3----------|-3---------3-------------|
E|---------------------|-3----------3--3--------|------3----------3----|------4------------------|


   q    e. s e  e  q     q    e. s e  e  e  e    q    e. s e  e  q     e. s e  e  e  e  e  e  
e|---------------------|-----------------------|---------------------|-------------------------|
B|-1----1--3-1---------|-1----1--3-4--3--1-----|-1----1--3-1---------|-0----0--------------0---|
G|--------------2--2---|--------------------1--|--------------0--0---|----3----2--0--0--2------|
D|-3---------3---------|-3---------0-----2--0--|---------------------|------0------------------|
A|------3----------3---|------3----------------|-3---------3---------|------------------0--2---|
E|---------------------|-----------------------|------3----------3---|-3----------3--3---------|


   e  s e    s e e s e  s e               REPEAT SECTION A THEN GO ON TO SECTION B
e|---------------------------|
B|-1--1-1----0-1---1-1--0-1--|
G|---------------1-----------|
D|---------------------------|
A|-3-------------------------|
E|---------------4-----------|



SECTION B

   e  s e  s e  e  e  e  e    e  s e  e  (trill)       e  s e  e  (trill)      
e|--------------------------|-1--3-5------8p7h8p7h8--|-------------3p2h3p2h3--|
B|----1-1--0-1--0-----------|---------6--------------|-1--3-5-----------------|
G|-2---------------2--0-----|------------------------|---------5--------------|
D|-0------------5--------3--|-3----------------------|------------------------|
A|--------------------------|------3------8----------|-3-----------3----------|
E|--------------------------|------------------------|------3-----------------|


   e  s e  e  (trill)     
e|-1--3-5------8p7h8p7h8--|
B|---------6--------------|
G|------------------------|
D|-3----------------------|
A|------3------8----------|
E|------------------------|


   e  e  e  e  e  e  e  e    e  s e  e  (trill)       e  s e  e  (trill)     
e|-7--7--5--5--7--7--3--3--|-1--3-5------8p7h8p7h8--|-------------3p2h3p2h3--|
B|-------------------------|---------6--------------|-1--3-5-----------------|
G|-0-----------0-----0-----|------------------------|---------5--------------|
D|-------0-----------------|-3----------------------|------------------------|
A|-------------------------|------3------8----------|-3-----------3----------|
E|-------------------------|------------------------|------3-----------------|


   e  e e  e  e  e  e  e   e  e  e  e  e  e   q     
e|-1--3-5-----2--3--5----|-3--5--7-----7--10--15--|REPEAT UNTIL YOU LEARN ALL THE MOVES
B|---------6-----------7-|----------8---------15--|| TO REACH THE LAIR...
G|-----------------------|-0----------------------|| ANY COMMENTS WELCOME 
D|-3----------4-----0----|-------0----------------|| ENJOY!!!
A|------3----------------|------------------------||  
E|-----------------------|-------------7----------||



Login or Register to remove this ad.