Ads

Spiral Mountain (Banjo-Kazooie) Guitar Tab

Submitted: Apr 15, 2013 by thedstring (Last updated: Oct 20, 2013)

5
Average: 5 (7 votes)
Download | Listen
Game: Banjo-Kazooie
Composer(s): Grant Kirkhope
Style: Arrangement, Fingerstyle

AutoScroll: Slow | Medium | Fast
Spiral Mountain
Banjo Kazooie

Composed by Grant Kirkhope
Arranged by Nate Brooks (thedstring)



This song is orignally in the key of C, to put these notes on the guitar was really hard. I decided to transpose
it to the 5 chord since it still has the same feel to it when played, so now it's in G.

If you really want to play it in the original key put the capo on fret 10, but that's difficult to deal with.



drop d tuning - capo fret 5

    |       |       |       |
E||-----------------0-0---2-0-------|
B||-2-------3-------2-2---------0---|
G||-2-------4-----------------------|
D||---------------------------------|
A||-----0-------0-------0---2---4---|
D||---------------------------------|


    |       |       |       |         |       |       |       |         |       |       |       |
||----------------0-----------------|---------------------------------|---------------------------------|
||--3-------3-------3---------------|-0-------0---2---3-------2---0---|---------------0-----------------|
||o---------------------2---2-------|-------3-------------------------|-2-------2-------2-------0-------|
||o-----0-------0-------0-------0---|-----0-------0-------0-------0---|---------------------4-------2---|
||----------0---------------0-------|-2---------------2-------2---1---|-0---4-------4---0---4-------4---|
||--0---------------0---------------|---------4-----------------------|---------2-----------------------|


 |       |       |       |         |       |       |       |         |       |       |       |
---------------------------------|---------------0-----------------|-2-----1-2---0-------------------|
-------------------------0---2---|-3-------3-------3---------------|-----------------3-------3---4---|
-----2---------------2-------2---|---------------------2---2-------|-----3---3-------------------4---|
-4-----------0-------------------|-----0-------0-------0-------0---|---------------------0-------4---|
---------0-----------4---2---0---|---------0---------------0-------|-------------4---2-------2-------|
-0---------------0---------------|-0---------------0---------------|-4-------------------------------|


 |       |       |       |         |       |       |       |         |       |       |       |
-0-------0-----2-0---------------|---------------------------------|---------------0-----------------|
-------------------------0-------|-2-----1-2---0-----------0---2---|-3-------3-------3---------------|
-----1-------1-------1-------1---|-------------2---2---2-------2---|---------------------2---2-------|
-----0-------0-------0-------0---|---------2-----------------------|-----0-------0-------0-------0---|
---------2---------------2-------|-0---4-------4---0---4---2---4---|---------0---------------0-------|
-2---------------2---------------|---------------------------------|-0---------------0---------------|



 |       |       |       |         |       |       |       |         |       |       |       |
---------------0-----------------|---------------0-----------------|---------------0-1---0-----------|
-3-------3-------3---------------|-3-------3-------3---0---0-------|-3-------3---------------3-------|
-----3-------3-------3---3-------|---------------------------------|-------------3---0-----------3---|
-----0-------0-------0-----------|-----0-------0-------0-------0---|-----0---------------0-------2---|
---------1-----------------------|---------------------------------|---------------------------------|
-0---------------0-------2---4---|-5-------0-------5-------0-------|-5-------0---------------4---2---|


 |       |       |       |         |       |       |       |         |       |       |       |
---------------0-----------------|---------------------------------|---------------------------------|
-3-------3-------3---------------|-2-----1-2---0-----------0---2---|-3---3-3---2-3-------3-3---2-3---|
-----2-------2-------2---2-------|-------------2---2---2-------2---|-----2-------2---3---3-------3---|
-----0-------0-------0-------0---|---------2-----------------------|-----0-------0-------0-------0---|
---------0---------------0-------|-0---4-------4---0---4---2---4---|---------0-------1---------------|
-0---------------0---------------|---------------------------------|-0-----------------------3-------|


-1_____________________________
 |       |       |       |     \
---------------------------------||
-----------------------0---------||
-2-------2-------2-2-----2------o||
-----------------2-----------2--o||
-0---0---4---0-------0---4-------||
---------------------------------||

-2_____________________________
 |       |       |       |     \   |       |       |       |         |       |       |       |
---------------------------------|---------------------------------|-------0-2-------5---------------|
-0---3-3---2-3---2---0-----------|---------0-------3---------------|-3-----------3-------------------|
---------1---------------2---0---|-0-----2-----0-------------------|---------------------------------|
---------------------------------|-0-------------------------------|---------0-----------------------|
---------2-------0-------4-------|-----2-------2-------2-------2---|-----0-------0-------0-------0---|
-2-----------------------5-------|-----------------5-------0-------|-4---------------4-------0-------|


 |       |       |       |         |       |       |       |         |       |       |       |
---------------------------------|---------------------------------|---------------------------------|
---------0-------3---------------|-2---2---0---0---2---2-----------|---------0-------3---------------|
-0-----2-----0-------------------|-------------------------2---1---|-0-----2-----0-------------------|
---------0-----------------------|---------------------------------|-0-------------------------------|
-----2-------2-------2-------2---|-0---4-------4---0---4-------3---|-----2-------2-------2-------2---|
-5---------------5-------0-------|---------2---------------2-------|-----------------5-------0-------|



 |       |       |       |         |       |       |       |         |       |       |       |
-------0-2-------5---------------|---------------------------------|---------------------0---5-------|
-3-----------3-------------------|---------0---------------0-------|-------0-2-------2-------2-------|
---------------------------------|-0-----2-----0---1---2-------1---|-2-----------2---2---2---2-------|
---------0-----------------------|---------0---------------2-------|---------2---------------2-------|
-----0-------0-------0-------0---|-----2-------2-------3-----------|-0---4-------4---0---4-------4---|
-4---------------4-------0-------|-5-------------------------------|---------------------------------|



 |       |       |       |         |       |       |       |         |       |       |       |
---------------0-----------------|---------------------------------|---------------------------------|
-3-------3-------3---------------|-0-------0---2---3-------2---0---|---------------0-----------------|
---------------------2---2-------|-------3-------------------------|-2-------2-------2-------0-------|
---------------------------------|---------------------------------|---------------------4-------2---|
---------0---------------0-------|-2---------------2-------2---1---|-0---------------0---0---2---4---|
-0---------------0-----------0---|---------4-----------------------|---------2-----------------------|



---------------------------------||
-3-(-----------------------------||
-2-)-----------------------------||
-0-(-----------------------------||
-0-)-----------------------------||
-0-(-----------------------------||
Login or Register to remove this ad.

5 comments on Spiral Mountain

Here's a GP5 Banjo Kazooie -

Uploaded it to the zip up top

Uploaded it to the zip up top

Suuuuuhhhhhhwwwwwwwwweeeeeeee

5

Suuuuuhhhhhhwwwwwwwwweeeeeeeeeetttttt. Always like these happy and sort of playful tone songs.

This is awesome, by far the

This is awesome, by far the best Spiral Mountain Tab I've seen so far and easily one of the best Banjo Kazooie tabs. Great job.

Thanks so much! It was a bit

Thanks so much! It was a bit of work :)