Pause Screen (Banjo-Kazooie) Banjo Tab

Submitted: Sep 13, 2014 by bryce1123

5
Average: 5 (1 vote)
Download | Listen
Game: Banjo-Kazooie
Composer(s): Grant Kirkhope
Style: Alternate picking, Transcription

AutoScroll: Slow | Medium | Fast
D----------------------------------------------------------------
B----------------------------------------------------------------
G-5--------5--------5--------5--------------2-----------2--------
D----5-7-5----5-7-5----4-6-4----4-6-4-5--2-----5--2--5----2--5--2
G----------------------------------------------------------------


D----------------------------------------------------------------
B----------------------------------------------------------------
G-5--------5--------5--------5-----------------------------------
D----5-7-5----5-7-5----4-6-4----4-6-4-5--5--7-8--7--5--8--5---2--
G----------------------------------------------------------------


D----15--------------9---------------------------------5---------
B----13---------6----9-------------------------6--5-6---------4-5
G----14-------5---6--10--6-5-6-8-5-----7-5---------------5--7----
D-----------7-----------------------7-------7--------------------
G-8------8-------------------------------------------------------


D----15----------------------6---------7--------7--------------7-
B-6--13--6--5-6-4---------------6--6-8----8--6--------6--8888----
G----14-----------6--6--5-6------------------------5-------------
D----------------------------------------------------------------
G----------------------------------------------------------------


D-9--7------------7-8--7-------------7---------------------------
B------8----8888---------8--5-----8----8-------------3----3------
G---------7--------------------7----------7--4--3-4----4----4----
D--------------------------------------------------------------5-
G----------------------------------------------------------------


D-5--------5--------5--------5---------------------------------
B----3-5-3----3-5-3----2-4-2----2-4-2-3--3--5-6--5--3--6--3----
G------------------------------------------------------------4-
D--------------------------------------------------------------
G--------------------------------------------------------------
Login or Register to remove this ad.

2 comments on Pause Screen

Its a good one.

5

This one is allot harder, but I'm not being discouraged!
I accept the challenge before me, it takes time to be good at something.

Atleast I can loop the basic part of it to entertain myself now lol =P

thanks man

thanks man