Gobi's Valley (Banjo-Kazooie) Guitar Tab

Submitted: Jun 15, 2009 by RexLeRouge

4.75
Average: 4.8 (4 votes)
Download | Listen
Game: Banjo-Kazooie
Composer(s): Grant Kirkhope
Style: Transcription

Click here for a video example.

AutoScroll: Slow | Medium | Fast
Banjo Kazooie - Gobi's Valley

Composed by: Grant Kirkhope
Tabbed by: RexLeRouge                                   


Lead
     Q.     Q.     Q       E  Q     S S  Q     Q        W                 
E||--8------7-----------|---------------------------|--------------------|
B||----------------9----|--L--8---------------------|--------------------|
G||---------------------|----------10-9-10----------|--------------------|
D||---------------------|---------------------11----|--10----------------|
A||---------------------|---------------------------|--------------------|
E||---------------------|---------------------------|--------------------|


  W                   E  E  E  E  E  E  Q       S S S S E  E  Q.     E   
-------------------|--8--7--7----------------|--------------------------|
-------------------|-----------9--9--8--8----|--8-9-8-9-8--9--8------9--|
-------------------|-------------------------|--------------------------|
-------------------|-------------------------|--------------------------|
-------------------|-------------------------|--------------------------|
-------------------|-------------------------|--------------------------|


  E  E  E  E  E  E  Q        S  S  S  S  E   E  S S S S E  E   
--8--7--7----------------|------------------------7---7----7--|
-----------9--9--8--8----|----------------------8---8---8-----|
-------------------------|--10-12-10-12-10--12----------------|
-------------------------|------------------------------------|
-------------------------|------------------------------------|
-------------------------|------------------------------------|


  E  E  E  E  E  E  Q       S S S S E  E  Q.     E     E  E  E  E  E  E  Q     
--8--7--7----------------|--------------------------|--8--7--7----------------|
-----------9--9--8--8----|--8-9-8-9-8--9--8------9--|-----------9--9--8--8----|
-------------------------|--------------------------|-------------------------|
-------------------------|--------------------------|-------------------------|
-------------------------|--------------------------|-------------------------|
-------------------------|--------------------------|-------------------------|


   Q     Q     Q    Q        E  S S  E  E   E  S S  E  E   
-------------------------|------8-------8------8-------8--|
-------------------------|--------8--------------8--------|
--10---------------------|--------------------------------|
--------11----10---------|--10------10-----10------10-----|
-------------------------|--------------------------------|
-------------------------|--------------------------------|


   E  S S  E  E   E  E   E  E     E  E  E  E  E  E  Q     
------8-------8-------------8--|--8--7--7----------------|
--------8------------8---------|-----------9--9--8--8----|
-------------------------------|-------------------------|
--10------10-----10-----10-----|-------------------------|
-------------------------------|-------------------------|
-------------------------------|-------------------------|


  S S S S E  E  Q.     E     E  E  E  E  E  E  Q     
--------------------------|--8--7--7----------------|
--8-9-8-9-8--9--8------9--|-----------9--9--8--8----|
--------------------------|-------------------------|
--------------------------|-------------------------|
--------------------------|-------------------------|
--------------------------|-------------------------|


   S  S  S  S  E   E  S S S S E  E     E  E  E  E  E  E  Q     
------------------------7---7----7--|--8--7--7----------------|
----------------------8---8---8-----|-----------9--9--8--8----|
--10-12-10-12-10--12----------------|-------------------------|
------------------------------------|-------------------------|
------------------------------------|-------------------------|
------------------------------------|-------------------------|


  S S S S E  E  Q.     E     E  E  E  E  E  E  Q        Q     Q     Q    Q     
--------------------------|--8--7--7----------------|-------------------------|
--8-9-8-9-8--9--8------9--|-----------9--9--8--8----|-------------------------|
--------------------------|-------------------------|--10---------------------|
--------------------------|-------------------------|--------11----10---------|
--------------------------|-------------------------|-------------------------|
--------------------------|-------------------------|-------------------------|


  Q    E  E   Q    E  E     E  S S E  S S E  S S E  S S  
-------------------------|------------------------------|
-------------------------|-----8-8----7-7----8-8----7-7-|
--6----6--8--10----8--6--|--5------5------5------5------|
-------------------------|------------------------------|
-------------------------|------------------------------|
-------------------------|------------------------------|


  Q    E  E   Q    E  E     Q    Q    Q    Q       Q    E  E   Q    E  E   
-------------------------|----------------------|-------------------------|
-------------------------|----------------------|-------------------------|
--6----6--8--10----8--6--|--5----4--------------|--6----6--8--10----8--6--|
-------------------------|------------6----5----|-------------------------|
-------------------------|----------------------|-------------------------|
-------------------------|----------------------|-------------------------|


  E  S S E  S S E  S S E  S S    Q    E  E   Q    E  E   
------------------------------|-------------------------|
-----8-8----7-7----8-8----7-7-|-------------------------|
--5------5------5------5------|--6----6--8--10----8--6--|
------------------------------|-------------------------|
------------------------------|-------------------------|
------------------------------|-------------------------|


  Q    E  E  Q    E  E     E  E  Q    E  E  Q     
------------------------|------------------------|
------------------------|------------------------|
--5----5--7--9----7--5--|-----5--7----------5----|
------------------------|--8----------6--8-------|
------------------------|------------------------|
------------------------|------------------------|


  S S S S S S S S S S S S E  E     E  E  E  E  E  E  Q     
--------------------------------|--8--7--7----------------|
--------------------------------|-----------9--9--8--8----|
--------5-----------5-----------|-------------------------|
--5-6-8---8-6-5-6-8---8-6-5--9--|-------------------------|
--------------------------------|-------------------------|
--------------------------------|-------------------------|


  S S S S E  E  Q.     E     E  E  E  E  E  E  Q     
--------------------------|--8--7--7----------------|
--8-9-8-9-8--9--8------9--|-----------9--9--8--8----|
--------------------------|-------------------------|
--------------------------|-------------------------|
--------------------------|-------------------------|
--------------------------|-------------------------|


   S  S  S  S  E   E  S S S S E  E     E  E  E  E  E  E  Q     
------------------------7---7----7--|--8--7--7----------------|
----------------------8---8---8-----|-----------9--9--8--8----|
--10-12-10-12-10--12----------------|-------------------------|
------------------------------------|-------------------------|
------------------------------------|-------------------------|
------------------------------------|-------------------------|


  S S S S E  E  Q.     E     E  E  E  E  E  E  Q        Q     Q     Q    Q     
--------------------------|--8--7--7----------------|-------------------------|
--8-9-8-9-8--9--8------9--|-----------9--9--8--8----|-------------------------|
--------------------------|-------------------------|--10---------------------|
--------------------------|-------------------------|--------11----10---------|
--------------------------|-------------------------|-------------------------|
--------------------------|-------------------------|-------------------------|


  S S S S E  E  S S S S E  E     S S S S S S S S S S S S S S S S  
--6-5-6-5-6-----6-5-6-5-6-----|--8---7---8---7---8---7---8---7---|
-------------6-------------6--|----8---8---8---8---8---8---8---8-|
------------------------------|----------------------------------|
------------------------------|----------------------------------|
------------------------------|----------------------------------|
------------------------------|----------------------------------|


  S S S S E  E  S S S S E  E     E  E  E   E  E  E   E   E   
--6-5-6-5-6-----6-5-6-5-6-----|--7--8--7------7--8--10--11--|
-------------6-------------6--|-----------10----------------|
------------------------------|-----------------------------|
------------------------------|-----------------------------|
------------------------------|-----------------------------|
------------------------------|-----------------------------|


  S S S S E  E  S S S S E  E     S S S S S S S S S S S S S S S S  
--6-5-6-5-6-----6-5-6-5-6-----|--8---7---8---7---8---7---8---7---|
-------------6-------------6--|----8---8---8---8---8---8---8---8-|
------------------------------|----------------------------------|
------------------------------|----------------------------------|
------------------------------|----------------------------------|
------------------------------|----------------------------------|


  S S S S E  E  S S S S E  E     E.   S E   E  E  E   E  E   
--6-5-6-5-6-----6-5-6-5-6-----|---------8----------------8--|
-------------6-------------6--|--9---11----11--9--9--11-----|
------------------------------|-----------------------------|
------------------------------|-----------------------------|
------------------------------|-----------------------------|
------------------------------|-----------------------------|


  Q    E   E   Q     E  E      Q     E  E   E  E   E   E   
--9----9--11--12----11--9--|--12--------------------------|
---------------------------|--------11--9-------------11--|
---------------------------|---------------12--9--12------|
---------------------------|------------------------------|
---------------------------|------------------------------|
---------------------------|------------------------------|


   E  E  E  E  E  E  Q       S S S S E  E  Q.     E     E  E  E  E  E  E  Q     
--------------------------|--------------------------|-------------------------|
---6--5--5----------------|--------------------------|--6--5--5----------------|
--13--------6--6--5--5----|--5-6-5-6-5--6--5------6--|-----------6--6--5--5----|
--------------------------|--------------------------|-------------------------|
--------------------------|--------------------------|-------------------------|
--------------------------|--------------------------|-------------------------|


  S S S S E  E  S S S S E  E     E  E  E  E  E  E  Q     
------------------------------|-------------------------|
------------------5---5----5--|--6--5--5----------------|
--3-5-3-5-3--5--5---5---5-----|-----------6--6--5--5----|
------------------------------|-------------------------|
------------------------------|-------------------------|
------------------------------|-------------------------|


  S S S S E  E  Q.     E     E  E  E  E  E  E  Q       Q    Q    H         
--------------------------|-------------------------|---------------------|
--------------------------|--6--5--5----------------|---------------------|
--5-6-5-6-5--6--5------6--|-----------6--6--5--5----|--3------------------|
--------------------------|-------------------------|-------4----3--------|
--------------------------|-------------------------|---------------------|
--------------------------|-------------------------|---------------------|


  Q    E  E  Q    E  E     E  S S E  S S E  S S E  S S  
------------------------|------------------------------|
------------------------|------------------------------|
------------------------|-----5-5----4-4----5-5----4-4-|
--4----4--6--8----6--4--|--3------3------3------3------|
------------------------|------------------------------|
------------------------|------------------------------|


  Q    E  E  Q    E  E     Q    Q    Q    Q       Q    E  E  Q    E  E   
------------------------|----------------------|------------------------|
------------------------|----------------------|------------------------|
------------------------|----------------------|------------------------|
--4----4--6--8----6--4--|--3----2--------------|--4----4--6--8----6--4--|
------------------------|------------4----3----|------------------------|
------------------------|----------------------|------------------------|


  E  S S E  S S E  S S E  S S    Q    E  E  Q    E  E   
------------------------------|------------------------|
------------------------------|------------------------|
-----5-5----4-4----5-5----4-4-|------------------------|
--3------3------3------3------|--4----4--6--8----6--4--|
------------------------------|------------------------|
------------------------------|------------------------|


  Q    E  E  Q    E  E     E  E  Q    E  E  Q     
------------------------|------------------------|
------------------------|------------------------|
------------------------|------------------------|
--3----3--5--7----5--3--|--1--3--5---------------|
------------------------|-------------4--6--8----|
------------------------|------------------------|


  S S S S S S S S S S S S E  E     Q    H.              W                  
--------------------------------|--------------------|-------------------||
--------------------------------|--------------------|-------------------||
--------------------------------|--------------------|-------------------||
--------3-----------3--------2--|--------------------|-------------------||
--3-4-6---6-4-3-4-6---6-4-3-----|--3-----------------|-------------------||
--------------------------------|--------------------|-------------------||




Duration Legend
---------------
W - whole
H - half
Q - quarter
E - 8th
S - 16th
T - 32nd
X - 64th
. - note dotted
|-n-|  - n-tuplets


Tablature Legend
----------------
L - tied note
x - dead note
g - grace note
(n) - ghost note
> - accentuded note
NH - natural harmonic
AH - artificial harmonic
TH - tapped harmonic
SH - semi harmonic
PH - pitch harmonic
h - hammer on
p - pull off
b - bend
br - bendRelease
pb - preBend
pbr - preBendRelease
brb - bendReleaseBend
\n/ - tremolo bar dip
\n - tremolo bar dive
-/n - tremolo bar Release up
/n\ - tremolo bar inverted dip
/n - tremolo bar return
-\n - tremolo bar Release down
S - shift slide
s - legato slide
/ -  slide into from below or out of upwards
\ -  slide into from above or out of downwards
~ - vibrato
W - wide vibrato
tr - trill
TP - tremolo picking
T - tapping
S - slap
P - pop
< - fade in
^ - brush up
v - brush down
Login or Register to remove this ad.

1 comment on Gobi's Valley

I like it, but almost unplayable note...

4

----
--6-
-13-
----
----
----

This is doable... But this has to be a mistake right? Lol.

Otherwise the tab is almost perfect, if not perfect.