Ads

Freezezy Peak (Banjo-Kazooie) Guitar Tab

Submitted: Sep 02, 2013 by Jaime Uribe

5
Average: 5 (1 vote)
Download | Listen
Game: Banjo-Kazooie
Composer(s): Grant Kirkhope
Style: Transcription

AutoScroll: Slow | Medium | Fast
Composer of song: Grant Kirkhope
Name of tabber: Jaime Uribe
Date tab was made: 02-Sep-2013


Some parts are a little dificult but you can ignore some notes,
I just put them for acurary┬┤s sake


     S  S  S  S  E  E  S  S  S  S  E  E   
E||--8p-7h-8p-7h-8-----8p-7h-8p-7h-8-----|
B||-----------------8-----------------8--|
G||--------------------------------------|
D||--------------------------------------|
A||--------------------------------------|
E||--------------------------------------|

  S  S  S  S  E  E  S  S  S  S  E  E     S  S  S  S  E  E  S  S  S  S  E  E   
--8p-7h-8p-7h-8-----8p-7h-8p-7h-8-----|--8p-7h-8p-7h-8-----8p-7h-8p-7h-8-----|
-----------------8-----------------8--|-----------------8-----------------8--|
--5p-4h-5p-4h-5-----5p-4h-5p-4h-5-----|--5p-4h-5p-4h-5-----5p-4h-5p-4h-5-----|
-----------------5-----------------5--|-----------------5-----------------5--|
--------------------------------------|--------------------------------------|
--------------------------------------|--------------------------------------|

  S  S  S  S  E  E  S  S  S  S  E  E     S  S  S  S  E  E  S  S  S  S  E  E   
--8p-7h-8p-7h-8-----8p-7h-8p-7h-8-----|--8p-7h-8p-7h-8-----8p-7h-8p-7h-8-----|
-----------------8-----------------8--|-----------------8-----------------8--|
--5p-4h-5p-4h-5-----5p-4h-5p-4h-5-----|--5p-4h-5p-4h-5-----5p-4h-5p-4h-5-----|
-----------------5-----------------5--|-----------------5-----------------5--|
--------------------------------------|--------------------------------------|
--------------------------------------|--------------------------------------|

  S  S  S  S  E  E  S  S  S  S  E  E     Q    H.              W                 
--8p-7h-8p-7h-8-----8p-7h-8p-7h-8-----|--2-----------------|-------------------|
-----------------8-----------------8--|--2-----------------|-------------------|
--5p-4h-5p-4h-5-----5p-4h-5p-4h-5-----|--3-----------------|-------------------|
-----------------5-----------------5--|--4-----------------|-------------------|
--------------------------------------|--------------------|-------------------|
--------------------------------------|--------------------|-------------------|

  Q    E.  S Q    Q       E  E  E.  S Q    Q     
-----------------------|------------------------|
-----------2-4----2----|--L---------2-4----2----|
-------3---------------|--------3---------------|
--4--------------------|-----4------------------|
-----------------------|------------------------|
-----------------------|------------------------|

  S  S  S  S  Q    S  S  S  S  Q       S  S  S  S  E  E  E  E  E  E   
------------------------------------|--------------------------------|
--2p-1h-2p-1h-2---------------------|--------------------------------|
-------------------3p-2h-3p-2h-3----|--------------------------------|
------------------------------------|--4p-3h-4p-3h-4-----------------|
------------------------------------|-----------------4--5--4--3--4--|
------------------------------------|--------------------------------|

  Q    E.  S Q    Q       E  E  E.  S Q    Q     
-----------------------|------------------------|
-----------2-4----2----|--L---------2-4----2----|
-------3---------------|--------3---------------|
--4--------------------|-----4------------------|
-----------------------|------------------------|
-----------------------|------------------------|

  S  S  S  S  Q    S  S  S  S  Q       S  S  S  S  E  E  E  E  E  E   
------------------------------------|--------------------------------|
--3p-2h-3p-2h-3---------------------|--------------------------------|
-------------------4p-3h-4p-3h-4----|--------------------------------|
------------------------------------|--5p-4h-5p-4h-5-----------------|
------------------------------------|-----------------5--6--5--4--5--|
------------------------------------|--------------------------------|

  Q.     E  Q    E  E     E  E  E  E  Q    Q       Q.     E  Q    E  E   
-----------------------|------------------------|-----------------------|
-----------------------|------------------------|-----------------------|
--2-----------------2--|------------------------|-----------------------|
---------5--3----5-----|--5--3--2--3--5----2----|---------2--3----2-----|
-----------------------|------------------------|--5-----------------5--|
-----------------------|------------------------|-----------------------|

  Q    Q    H           Q.     E  Q    E  E     E  E  E  E  Q    Q     
---------------------|-----------------------|------------------------|
---------------------|-----------------------|------------------------|
---------------------|--2-----------------2--|------------------------|
--2----3----5--------|---------5--3----5-----|--5--3--2--3--5----2----|
---------------------|-----------------------|------------------------|
---------------------|-----------------------|------------------------|

  Q    E.  S Q    E.  S    Q    E.  S Q    Q       Q    E.  S Q    Q     
------------------------|-----------------------|-----------------------|
------------------------|-----------------------|-----------2-4----2----|
-----------2------------|-----------2-----------|-------3---------------|
-------5-----5----------|-------5-----5---------|--4--------------------|
--5---------------------|------------------5----|-----------------------|
------------------3---5-|--3--------------------|-----------------------|

  E  E  E.  S Q    Q       S  S  S  S  Q    S  S  S  S  Q     
------------------------|------------------------------------|
--L---------2-4----2----|--2p-1h-2p-1h-2---------------------|
--------3---------------|-------------------3p-2h-3p-2h-3----|
-----4------------------|------------------------------------|
------------------------|------------------------------------|
------------------------|------------------------------------|

  S  S  S  S  E  E  E  E  E  E     Q    E.  S Q    Q     
--------------------------------|-----------------------|
--------------------------------|-----------2-4----2----|
--------------------------------|-------3---------------|
--4p-3h-4p-3h-4-----------------|--4--------------------|
-----------------4--5--4--3--4--|-----------------------|
--------------------------------|-----------------------|

  E  E  E.  S Q    Q       S  S  S  S  Q    S  S  S  S  Q     
------------------------|------------------------------------|
--L---------2-4----2----|--3p-2h-3p-2h-3---------------------|
--------3---------------|-------------------4p-3h-4p-3h-4----|
-----4------------------|------------------------------------|
------------------------|------------------------------------|
------------------------|------------------------------------|

  S  S  S  S  E  E  E  E  E  E     Q.     E  Q    E  E   
--------------------------------|-----------------------|
--------------------------------|-----------------------|
--------------------------------|--2-----------------2--|
--5p-4h-5p-4h-5-----------------|---------5--3----5-----|
-----------------5--6--5--4--5--|-----------------------|
--------------------------------|-----------------------|

  E  E  E  E  Q    Q       Q.     E  Q    E  E     Q    Q    H         
------------------------|-----------------------|---------------------|
------------------------|-----------------------|---------------------|
------------------------|-----------------------|---------------------|
--5--3--2--3--5----2----|---------2--3----2-----|--2----3----5--------|
------------------------|--5-----------------5--|---------------------|
------------------------|-----------------------|---------------------|

  Q.     E  Q    E  E     E  E  E  E  Q    Q       Q    E.  S Q    E.  S  
-----------------------|------------------------|------------------------|
-----------------------|------------------------|------------------------|
--2-----------------2--|------------------------|-----------2------------|
---------5--3----5-----|--5--3--2--3--5----2----|-------5-----5----------|
-----------------------|------------------------|--5---------------------|
-----------------------|------------------------|------------------3---5-|

  Q    E.  S Q    Q       Q.     Q    Q    E     Q.     E  H         
-----------------------|--------------0----3--|--5------3--3--------|
-----------------------|---------1----1----5--|--5------5--5--------|
-----------2-----------|--0------0----0----5--|--5------5--5--------|
-------5-----5---------|--2------2------------|---------------------|
------------------5----|--3-------------------|---------------------|
--3--------------------|----------------------|---------------------|

  Q    Q    Q    Q       Q.     E  H           Q.     E  H         
------------0----3----|--5------3--3--------|--7------7--5--------|
-------1----1----5----|--5------5--5--------|--8------8--6--------|
-------0----0----5----|--5------5--5--------|--9------9--9--------|
-------2--------------|---------------------|---------------------|
----------------------|---------------------|---------------------|
----------------------|---------------------|---------------------|

  Q    Q    Q.     E     W                   Q    E.  S Q    Q     
-------5----3------3--|--3----------------|-----------3-5----3----|
-------6----6------6--|--5----------------|-------5---5-5----5----|
-------9----7------7--|--5----------------|--5----5---------------|
----------------------|-------------------|--5--------------------|
----------------------|-------------------|-----------------------|
----------------------|-------------------|-----------------------|

  Q.     Q    Q    E     Q.     E  H           Q    Q    Q    Q     
--------------0----3--|--5------3--3--------|------------0----3----|
---------1----1----5--|--5------5--5--------|-------1----1----5----|
--0------0----0----5--|--5------5--5--------|-------0----0----5----|
--2------2------------|---------------------|-------2--------------|
--3-------------------|---------------------|----------------------|
----------------------|---------------------|----------------------|

  Q.     E  H           Q.     E  H           Q    Q    Q.     E   
--5------3--3--------|--1------1--1--------|-------1----1------1--|
--5------5--5--------|--1------1--1--------|-------1----3------3--|
--5------5--5--------|--2------2--2--------|-------2----2------2--|
---------------------|---------------------|----------------------|
---------------------|---------------------|----------------------|
---------------------|---------------------|----------------------|

  W                   W                   Q.     E  Q    E  E   
--0----------------|--L----------------|-----------------------|
--1----------------|--L----------------|-----------------------|
--4----------------|--L----------------|--2-----------------2--|
-------------------|-------------------|---------5--3----5-----|
-------------------|-------------------|-----------------------|
-------------------|-------------------|-----------------------|

  E  E  E  E  Q    Q       Q    E  E  Q    E  E     Q    Q    Q.     S S  
------------------------|------------------------|-----------------------|
------------------------|------------------------|-----------------------|
------------------------|------------------------|-----------------------|
--5--3--2--3--5----2----|----------2--3----2-----|--2----3----5------3-5-|
------------------------|--5----5-------------5--|-----------------------|
------------------------|------------------------|-----------------------|

  Q.     E  Q    E  E     E  E  E  E  Q    Q       Q    E.  S Q    E.  S  
-----------------------|------------------------|------------------------|
-----------------------|------------------------|------------------------|
--2-----------------2--|------------------------|-----------2------------|
---------5--3----5-----|--5--3--2--3--5----2----|-------5-----5----------|
-----------------------|------------------------|--5---------------------|
-----------------------|------------------------|------------------3---5-|

  Q    E.  S Q    Q       S S S S E  E  S S S S E  E   
-----------------------|------------------------------|
-----------------------|------------------------------|
-----------2-----------|--5-4-5-4-5-----5-4-5-4-5-----|
-------5-----5---------|-------------5-------------5--|
------------------5----|------------------------------|
--3--------------------|------------------------------|

  S S S S E  E  S S S S E  E     S S S S E  E  S S S S E  E   
------------------------------|------------------------------|
------------------------------|------------------------------|
--5-4-5-4-5-----5-4-5-4-5-----|--5-4-5-4-5-----5-4-5-4-5-----|
-------------5-------------5--|-------------5-------------5--|
------------------------------|------------------------------|
------------------------------|------------------------------|

  S S S S E  E  S S S S E  E     S S S S E  E  S S S S E  E   
------------------------------|------------------------------|
-------------3-------------3--|--5-4-5-4-5-----5-4-5-4-5-----|
--4-3-4-3-4-----4-3-4-3-4-----|--5-4-5-4-5-----5-4-5-4-5-----|
------------------------------|-------------5-------------5--|
------------------------------|------------------------------|
------------------------------|------------------------------|

  S S S S E  E  S S S S E  E     S S S S E  E  S S S S E  E   
------------------------------|------------------------------|
--5-4-5-4-5-----5-4-5-4-5-----|--5-4-5-4-5-----5-4-5-4-5-----|
--5-4-5-4-5-----5-4-5-4-5-----|--5-4-5-4-5-----5-4-5-4-5-----|
-------------5-------------5--|-------------5-------------5--|
------------------------------|------------------------------|
------------------------------|------------------------------|

  S S S S E  E  S S S S E  E    
--3-2-3-2-3-----3-2-3-2-3-----||
-------------3-------------3--||
--4-3-4-3-4-----4-3-4-3-4-----||
------------------------------||
------------------------------||
------------------------------||



Duration Legend
---------------
W - whole
H - half
Q - quarter
E - 8th
S - 16th
T - 32nd
X - 64th
. - note dotted
|-n-|  - n-tuplets
Login or Register to remove this ad.