Throne of Bhaal (Baldurs Gate II: Shadows of Amn) Guitar Tab

Submitted: Jan 01, 2011 by Bhael

5
Average: 5 (4 votes)
Download | Listen
Game: Baldurs Gate II: Shadows of Amn
Composer(s): Michael Hoenig
Style: Arrangement, Fingerstyle
Series: Baldurs Gate

AutoScroll: Slow | Medium | Fast
                                  Main Theme     
                        Baldur's Gate II: Throne of Bhaal                           
                                   Inon Zur




     Q    E  Q    E     E  Q.     E  E     Q    E  Q    E     E  Q.     E  E   
D||------------------|------------------|------------------|------------------|
A||------------------|------------------|------------------|---------------0--|
F||------------------|------------------|------------------|------------2-----|
C||------------------|------------------|------------------|------------------|
G||--0-------0-------|-----0------------|--0-------0-------|-----0------------|
D||-------0-------0--|--L---------0--0--|-------0-------0--|--L---------0-----|


    S  S  E  E  Q    E     E  Q.     E  E     Q    E  Q    E   
|-----------------------|------------------|------------------|
|---1p-0h-1-------------|------------1--3--|--0---------------|
|*----------------------|------------------|------------------|
|*----------------------|------------------|------------------|
|---0-----------0-------|-----0------------|--0-------0-------|
|------------0-------0--|--L---------0-----|-------0-------0--|


  E  Q.     E  E     S  S  E  E  Q    E     E  Q.     E  E     Q    E  Q    E   
------------------|----------------------|---------------0--|------------------|
---------------0--|--1p-0h-1-------------|------------1-----|--0---------------|
------------2-----|----------------------|------------------|------------------|
------------------|----------------------|------------------|------------------|
-----0------------|--0-----------0-------|-----0------------|--0-------0-------|
--L---------0-----|-----------0-------0--|--L---------0-----|-------0-------0--|


  E  Q.     E  E     S  S  E  E  Q    E     E  Q.     Q    E   
------------------|----------------------|-----1------0-------|
------------0--1--|--3p-2h-3-------------|-----------------3--|
------------------|--0-------------------|-----3--------------|
------------------|----------------------|--------------------|
-----0------------|--0-----------0-------|-----0--------------|
--L---------0-----|-----------0-------0--|--L---------0-------|


  E  E  E  E  E  E     E  Q.     E  E       E  E  E  E  E  E   
--------------0-----|-------------------||-----------------0--|
--1--0--1--3-----0--|---------------0---||-----1--0--1--3-----|
--------------------|------------2-----*||--------------------|
--------------------|------------------*||--------------------|
--0--------0--------|-----0-------------||-----0--------------|
--------0--------0--|--L---------0------||--------------0-----|


  S  S  E  E  Q    E     E  E  E  E  E  E     S  S  E  E  Q    E   
--1p-0h-1-------------|-----0-----0--5--7--|--8p-7h-8-------------|
----------------------|--------3-----------|--5-------------------|
----------------------|--------------------|--5-------------------|
--0-----------0-------|-----0--------7-----|----------------------|
-----------0-------0--|--L-----------------|--0-----------0-------|
----------------------|--------------------|-----------0-------0--|


  E  Q.     Q       Q    Q    Q       Q    Q    Q       H        E  E   
------------7----|--5--------------|-----------------|-----------0--2--|
-----------------|-----------------|-------5---------|--7--------------|
-----------------|--5---------5----|-----------------|-----------------|
-----------------|-------7---------|--7---------7----|-----------------|
-----0-----------|--0--------------|-----------------|-----------------|
--L--------------|-----------------|-----------------|-----------------|


  S  S  E  Q    Q    S  S  E     Q    Q    Q    Q       Q    Q    Q    Q     
--3p-2h-3------------2h-3p-2--|-----------------2----|--5--------------3----|
----------------0-------------|--3-------------------|------------6---------|
-----------0------------------|------------4---------|-------5--------------|
--2---------------------------|-------4--------------|--3-------------------|
------------------------------|--2-------------------|----------------------|
------------------------------|----------------------|----------------------|


  Q    Q    Q    E  E     S  S  E  Q    Q    Q       Q    H        Q     
--0--------------0--2--|--3p-2h-3------------0----|---------------------|
------------1----------|----------------0---------|--3------------------|
-------0---------------|-----------0--------------|----------------4----|
-----------------------|--2-----------------------|-------4-------------|
--3--------------------|--------------------------|--2------------------|
-----------------------|--------------------------|---------------------|


  E  E  Q    Q    Q       Q    Q    E  E  E  E     S  S  E  Q    Q    S  S  E   
-----------------------|------------0--2--0--2--|--3p-2h-3------------2h-3p-2--|
--0--------------------|------------------------|--0-------------0-------------|
-----2--2--------------|-------2----------------|--0--------0------------------|
-------------2---------|------------------------|--2---------------------------|
--0---------------0----|--0---------------------|------------------------------|
-----------------------|------------------------|------------------------------|


  Q    Q    Q    Q       Q    Q    Q    S  S  E     Q    Q    Q    E  E   
-----------------2----|--5--------------3h-5p-3--|--0--------------0--2--|
--3-------------------|--6---------6-------------|--1---------1----------|
--4---------4---------|--5----5------------------|--0----0---------------|
--4----4--------------|--3-----------------------|--2--------------------|
--2-------------------|--------------------------|--3--------------------|
----------------------|--------------------------|-----------------------|


  E  E   E  E  E  E   Q        E  E  E  E  H           E   E   E  Q    E   
---------------7-----12----|--10-----------7--------|--7------------------|
--8-----10-----------------|------------------------|-----10--10----------|
---------------------------|------------------------|---------------------|
-----9------9-----9--------|---------9--------------|---------------------|
--7------------------------|------9-----9-----------|--0----------0-------|
---------------------------|---7--------------------|----------0-------0--|


  E  Q.     E  E     Q    E  Q    E     E  Q.     E  E     S  S  H        E   
------------------|------------------|------------------|--------------------|
------------------|------------------|---------------0--|--1p-0h-1--------L--|
------------------|------------------|------------2-----|--2--------------L--|
------------------|------------------|------------------|--2--------------L--|
-----0------------|--0-------0-------|-----0------------|--0--------------L--|
--L---------0--0--|-------0-------0--|--L---------0-----|--------------------|


  H.             
---------------||
--L------------||
--L------------||
--L------------||
--L------------||
---------------||




Duration Legend
---------------
W - whole
H - half
Q - quarter
E - 8th
S - 16th
T - 32nd
X - 64th
. - note dotted
|-n-|  - n-tuplets


Tablature Legend
----------------
L - tied note
x - dead note
g - grace note
(n) - ghost note
> - accentuded note
NH - natural harmonic
AH - artificial harmonic
TH - tapped harmonic
SH - semi harmonic
PH - pitch harmonic
h - hammer on
p - pull off
b - bend
br - bendRelease
pb - preBend
pbr - preBendRelease
brb - bendReleaseBend
\n/ - tremolo bar dip
\n - tremolo bar dive
-/n - tremolo bar Release up
/n\ - tremolo bar inverted dip
/n - tremolo bar return
-\n - tremolo bar Release down
S - shift slide
s - legato slide
/ -  slide into from below or out of upwards
\ -  slide into from above or out of downwards
~ - vibrato
W - wide vibrato
tr - trill
TP - tremolo picking
T - tapping
S - slap
P - pop
< - fade in
^ - brush up
v - brush down
Login or Register to remove this ad.

2 comments on Throne of Bhaal

i just love your tabs... I

i just love your tabs... I do!!

Thanks!

Thanks!