City Gates (Baldurs Gate II: Shadows of Amn) Guitar Tab

Submitted: Oct 23, 2011 by Bhael

5
Average: 5 (5 votes)
Download | Listen
Game: Baldurs Gate II: Shadows of Amn
Composer(s): Michael Hoenig
Style: Arrangement, Fingerstyle
Series: Baldurs Gate

Click here for a video example.

AutoScroll: Slow | Medium | Fast
                                  City Gates                                    
                       Baldur's Gate II: Shadows of Amn
                                Michael Hoenig




     H.           E  E     E  E  E  E  E  E  E  E     E  E  E  E  E  E  E  E   
E||---------------------|--0-----------0-----------|--------------------------|
B||------------------1--|-----------3-----------1--|-----------1-----------1--|
G||---------------2-----|--------2-----------2-----|--------2-----------2-----|
D||---------------------|-----2-----------2--------|-----2-----------2--------|
A||---------------------|--0-----------------------|--0-----------0-----------|
E||---------------------|--------------------------|--------------------------|


  E  E  E  E  E  E  E  E     E  E  E  E  E  E  E  E   
--------0-----------------|--3-----------0-----3--0--|
--------------1-----0-----|--------------------------|
-----------------------2--|--------0-----------------|
-----2-----2-----2--------|-----2-----2-----2--------|
--0-----------------------|--3-----------------------|
--------------------------|--------------------------|


  E  E  E  E  E  E  E  E     E  E  E  E  E  E  E  E   
-----------------------0--|--1--------1--------1-----|
--3--------0--------3-----|--------------3--------3--|
--------------0-----------|--------3-----------------|
--------0-----------------|-----3-----------3--------|
-----2-----------2--------|--1-----------------------|
--3-----------------------|--------------------------|


  E  E  E  E  E  E  E  E     E  E  E  E  E  E  E  E     E  Q    E  E  E  Q     
--------------------------|--0-----------------------|------------------------|
--1--------------------1--|--------1-----------------|------------------------|
-----------2--------2-----|--------------------0--2--|--3----------2-----0----|
--------3-----3-----------|-----2-----2-----2--------|-----0------------------|
-----3-----------3--------|--3-----------3-----------|----------------3-------|
--1-----------------------|--------------------------|--3-------3--1----------|


  Q.     E  Q    Q       Q.     E  Q    Q       E  E  E  E  E  E  E  E   
--3-------------------|--2-------------------|--3--------2--3-----------|
------------4---------|------------3---------|--------0-----------------|
---------3-------3----|---------2-------2----|-----0--------------0-----|
--1-------------------|--0-------------------|--2--------------2-----2--|
----------------------|----------------------|--------------3-----------|
----------------------|----------------------|--------------------------|


                                                  ^                  
  E  Q    E  E  E  Q       Q.     E  Q    Q       W                  
--2----------0----------|----------------------|-------------------||
----------3--------3----|--1-------------------|--0----------------||
-----2------------------|------------0---------|--0----------------||
--0-------------0-------|---------0-------0----|--0----------------||
------------------------|----------------------|-------------------||
-------------0-----2----|--3-------------------|--3----------------||




Duration Legend
---------------
W - whole
H - half
Q - quarter
E - 8th
S - 16th
T - 32nd
X - 64th
. - note dotted
|-n-|  - n-tuplets


Tablature Legend
----------------
L - tied note
x - dead note
g - grace note
(n) - ghost note
> - accentuded note
NH - natural harmonic
AH - artificial harmonic
TH - tapped harmonic
SH - semi harmonic
PH - pitch harmonic
h - hammer on
p - pull off
b - bend
br - bendRelease
pb - preBend
pbr - preBendRelease
brb - bendReleaseBend
\n/ - tremolo bar dip
\n - tremolo bar dive
-/n - tremolo bar Release up
/n\ - tremolo bar inverted dip
/n - tremolo bar return
-\n - tremolo bar Release down
S - shift slide
s - legato slide
/ -  slide into from below or out of upwards
\ -  slide into from above or out of downwards
~ - vibrato
W - wide vibrato
tr - trill
TP - tremolo picking
T - tapping
S - slap
P - pop
< - fade in
^ - brush up
v - brush down
Login or Register to remove this ad.

1 comment on City Gates

Oooh !

5

That's just beautiful, Thanks u