Staple Stable (Bakemonogatari) Guitar Tab

Submitted: Oct 26, 2013 by corntastic

2.714285
Average: 2.7 (7 votes)
Download | Listen
Game: Bakemonogatari
Composer(s): Kana Hanazawa
Style: Transcription

AutoScroll: Slow | Medium | Fast
Staple Stable
Bakemonogatari
Saitou Chiwa
corntastic
24 10 2013

Motif:
e--7---------7------------------------------------------------------------
B-----5-5--5--------------------------------------------------------------
G-------------------------------------------------------------------------
D-------------------------------------------------------------------------
A-------------------------------------------------------------------------
E------------------------------------------------------------------------- x8



e--0--0-0-----0------------0-----0--2-------------------------------------
B----------4-----0----0--0----4-------------------------------------------
G-------------------------------------------------------------------------
D------------------------------------------------------------------------- 
A-------------------------------------------------------------------------
E-------------------------------------------------------------------------

e--0--0-0-----0------------0-2--4--0-------------------------------------
B----------4-----0----0--0------------------------------------------------
G-------------------------------------------------------------------------
D-------------------------------------------------------------------------
A-------------------------------------------------------------------------
E-------------------------------------------------------------------------

e--0--0-0-----0------------0--2--4--5--4--0-------------------------------
B----------4-----0----0--0------------------------------------------------
G-------------------------------------------------------------------------
D-------------------------------------------------------------------------
A-------------------------------------------------------------------------
E-------------------------------------------------------------------------

e-----4--7--0-------------------------------------------------------------
B--7----------------------------------------------------------------------
G-------------------------------------------------------------------------
D-------------------------------------------------------------------------
A-------------------------------------------------------------------------
E-------------------------------------------------------------------------


e--0--0-0-----0------------0-----0--2-------------------------------------
B----------4-----0----0--0----4-------------------------------------------
G-------------------------------------------------------------------------
D-------------------------------------------------------------------------
A-------------------------------------------------------------------------
E-------------------------------------------------------------------------

e--0--0-0-----0------------0--2-4-5-5s7----0-0----0--7----0-0-------------
B----------4-----0----0--0------------------------------------------------
G-------------------------------------------------------------------------
D-------------------------------------------------------------------------
A-------------------------------------------------------------------------
E-------------------------------------------------------------------------

e--0--2----0----2--4--5--4----4--2--0-------------------------------------
B-------------------------------------------------------------------------
G-------------------------------------------------------------------------
D-------------------------------------------------------------------------
A-------------------------------------------------------------------------
E-------------------------------------------------------------------------

______________________________________________________________________________________


e--5--5-5-4----0--2--0-2-0-4--0--2--0----4-5-7-0-----------------------2-4--
B---------------------------------------------------0--0--0-0--0-5---5------
G---------------------------------------------------------------------------
D---------------------------------------------------------------------------
A---------------------------------------------------------------------------
E---------------------------------------------------------------------------

e--5-5-5-5-4---0-2-0-2-0-4--0-2-0------3-------------5--------------
B---------------------------------1---------5-1-3-------------------
G-------------------------------------------------------------------
D-------------------------------------------------------------------
A-------------------------------------------------------------------
E-------------------------------------------------------------------

______________________________________________________________________________________


e--------5-7--------7----7-7-7--------------------------------------------
B--5-7-9-----5-5--5------------4-4-7-5------------------------------------
G-------------------------------------------------------------------------
D-------------------------------------------------------------------------
A-------------------------------------------------------------------------
E-------------------------------------------------------------------------


e------4--4--------4--5-4-------------4-----------------------------------
B--5-7---------5-7--------5-----5--7-----7--------------------------------
G----------------------------4--------------------------------------------
D-------------------------------------------------------------------------
A-------------------------------------------------------------------------
E-------------------------------------------------------------------------

e--------5-7--------7----7-7-7--------------------------------------------
B--5-7-9-----5-5--5------------4-4-7-5------------------------------------
G-------------------------------------------------------------------------
D-------------------------------------------------------------------------
A-------------------------------------------------------------------------
E-------------------------------------------------------------------------

e------4--4--------4--5-4-------------4-----------------------------------
B--5-7---------5-7--------5-----5--7-----7--------------------------------
G----------------------------4--------------------------------------------
D-------------------------------------------------------------------------
A-------------------------------------------------------------------------
E-------------------------------------------------------------------------

______________________________________________________________________________________


e-----4--5--7----7--8--4-----4--------------9-----------------------------
B--7----------------------7-----7--5--4--5--------------------------------
G-------------------------------------------------------------------------
D-------------------------------------------------------------------------
A-------------------------------------------------------------------------
E-------------------------------------------------------------------------

e------------4-5-7------5-4-----------------------------------------------
B--5--5-5--7----------0-----5-7-5-----------------------------------------
G-------------------------------------------------------------------------
D-------------------------------------------------------------------------
A-------------------------------------------------------------------------
E-------------------------------------------------------------------------

repeat everything! then continue on
______________________________________________________________________________________


e-------------4-4--5-----------------5-5-4-4------------------------------
B--5-4-5--7-7--------7----4--4-4-5-7--------------------------------------
G-------------------------------------------------------------------------
D-------------------------------------------------------------------------
A-------------------------------------------------------------------------
E-------------------------------------------------------------------------

e----5s7-7----5-4------------------7--7----5-4----------------------------
B--5--------------5----0----5----5-------------5----7s9--9----------------
G-------------------------------------------------------------------------
D-------------------------------------------------------------------------
A-------------------------------------------------------------------------
E-------------------------------------------------------------------------

e-----5--4----(5)(4)----5--4--------4--5--7-------------------------------
B--5--------5--------5--------5--7----------------------------------------
G-------------------------------------------------------------------------
D-------------------------------------------------------------------------
A-------------------------------------------------------------------------
E-------------------------------------------------------------------------

 
e--------5-7--------7----7-7-7--------------------------------------------
B--5-7-9-----5-5--5------------4-4-7-5------------------------------------
G-------------------------------------------------------------------------
D-------------------------------------------------------------------------
A-------------------------------------------------------------------------
E-------------------------------------------------------------------------


e------4--4--------4--5-4-------------4-----------------------------------
B--5-7---------5-7--------5-----5--7-----7--------------------------------
G----------------------------4--------------------------------------------
D-------------------------------------------------------------------------
A-------------------------------------------------------------------------
E-------------------------------------------------------------------------

e--------5-7--------7----7-7-7--------------------------------------------
B--5-7-9-----5-5--5------------4-4-7-5------------------------------------
G-------------------------------------------------------------------------
D-------------------------------------------------------------------------
A-------------------------------------------------------------------------
E-------------------------------------------------------------------------

e------4--4--------4--5-4----------4--5--7--------------------------------
B--5-7---------5-7--------5-----5-----------------------------------------
G----------------------------4--------------------------------------------
D-------------------------------------------------------------------------
A-------------------------------------------------------------------------
E-------------------------------------------------------------------------

______________________________________________________________________________________


e--------5-7--------7----7-7-7--------------------------------------------
B--5-7-9-----5-5--5------------4-4-7-5------------------------------------
G-------------------------------------------------------------------------
D-------------------------------------------------------------------------
A-------------------------------------------------------------------------
E-------------------------------------------------------------------------


e------4--4--------4--5-4-------------4-----------------------------------
B--5-7---------5-7--------5-----5--7-----7--------------------------------
G----------------------------4--------------------------------------------
D-------------------------------------------------------------------------
A-------------------------------------------------------------------------
E-------------------------------------------------------------------------

e--------5-7--------7----7-7-7--------------------------------------------
B--5-7-9-----5-5--5------------4-4-7-5------------------------------------
G-------------------------------------------------------------------------
D-------------------------------------------------------------------------
A-------------------------------------------------------------------------
E-------------------------------------------------------------------------

e------4--4--------4--5-4-------------4-----------------------------------
B--5-7---------5-7--------5-----5--7-----7--------------------------------
G----------------------------4--------------------------------------------
D-------------------------------------------------------------------------
A-------------------------------------------------------------------------
E-------------------------------------------------------------------------

______________________________________________________________________________________


e-----4--5--7----7--8--4-----4--------------9-----------------------------
B--7----------------------7-----7--5--4--5--------------------------------
G-------------------------------------------------------------------------
D-------------------------------------------------------------------------
A-------------------------------------------------------------------------
E-------------------------------------------------------------------------

e------------4-5-7------5-4-----------------------------------------------
B--5--5-5--7----------0-----5-7-5-----------------------------------------
G-------------------------------------------------------------------------
D-------------------------------------------------------------------------
A-------------------------------------------------------------------------
E-------------------------------------------------------------------------
Login or Register to remove this ad.

1 comment on Staple Stable

Great!!

update the song link