Ads

Kaerimichi (Bakemonogatari) Guitar Tab

Submitted: Sep 28, 2012 by Aeter

5
Average: 5 (3 votes)
Download | Listen
Game: Bakemonogatari
Composer(s): Kana Hanazawa
Style: 2 or more instruments, Transcription

This song is also called Hachikuji Mayoi Opening

AutoScroll: Slow | Medium | Fast
________________________

Katou Emiri - Kaerimichi
(Hachikuji Mayoi OP)
________________________


Chords

> Intro
C# B C# B

> Theme
F# G# Fm A#m
D#m G# C# A#m
F# G# Fm A#m
B G#

> Verse
C# B C# E F#
C# B C# E F#

> Bridge
D#m G# Fm A#m
F# A G# F

> Chorus
A# Dm D# F
Dm Gm F# F
A# Dm D# F
Dm Gm Cm 
A# G# F# G#
A# G# F# G#
A#

> End
C#

________________

Melodies

> Intro

     E  E  E  E  E  E  E  E     E  E  E  E  E  E  E  E     E  E  E  E  E  E  E  E     E  E  E  E  H         
E||-----------1--------------|--------------------------|-----------1-----------7--|--L--7--7--7--7--------|
B||--2--1--2-----2--0-----0--|-----0-----0-----0-----0--|--2--1--2-----2--0--------|-----------------------|
G||--------------------------|--------------------------|--------------------------|-----------------------|
D||--------------------------|--------------------------|--------------------------|-----------------------|
A||--------------------------|--------------------------|--------------------------|-----------------------|
E||--------------------------|--------------------------|--------------------------|-----------------------|


> Theme

     Q    E  Q    Q    E     E  E  E  Q    E  E  E     E  E  E  Q    E  E  E     E  E  E  Q    E  E  E   
E||--------------------4--|--L----------------------|-------------------------|-------------------------|
B||-----------------------|-------------------------|-------------------------|-----6--7--6----L--L--L--|
G||--3----3--5----6-------|-----6--5--6----3--5--6--|--L-------------6--8--6--|--8----------------------|
D||-----------------------|-------------------------|-----4--6--8-------------|-------------------------|
A||-----------------------|-------------------------|-------------------------|-------------------------|
E||-----------------------|-------------------------|-------------------------|-------------------------|

     Q    E  Q    Q    E     E  E  E  Q    E  E  E     E  E  E  E  E  E  E  E     E  E  E  E  Q    E  Q     
E||--------------------4--|--L----------------------|--------------------------|---------------------------|
B||-----------------------|-------------------------|--7--6-----7--6-----7--6--|-----9-----9--9----9-------|
G||--3----3--5----6-------|-----6--5--6----3--5--6--|--------6--------6--------|--6------------------------|
D||-----------------------|-------------------------|--------------------------|---------------------------|
A||-----------------------|-------------------------|--------------------------|---------------------------|
E||-----------------------|-------------------------|--------------------------|---------------------------|

________________

Structure

Intro*2
Theme
Verse
Intro
Verse
Bridge
Chorus
Theme/2 (only second part)
End

________________
Login or Register to remove this ad.