Ads

Hoshizora (Bakemonogatari) Guitar Tab

Submitted: Jul 24, 2017 by tomorning

5
Average: 5 (6 votes)
Download | Listen
Game: Bakemonogatari
Composer(s): Kana Hanazawa
Style: Arrangement, Artificial harmonics, Fingerstyle

AutoScroll: Slow | Medium | Fast

July, 23 / 2017

                                                      星空                                                       
                                                  (Starry Sky)                                                       
                                       ~ from anime "化物語"(Bakemonogatari) ~

Music by Satoru Kousaki
arranged by to*morning

4/4

Q = 50


 (Standard Tuning, EADGBE) Capo 1

     E  E  E  E  E  E  Q       E  E  E  E  E  E  Q       E  E  E  E  E  E  E  E     E  E  E  E  E  E  E  E   
E||-----------2--------3----|-----------5--------3----|-----0--2--5--5-----3--5--|--2--------2-----------2--|
B||--------5----------------|--------7----------------|--3--------------------3--|--3-----3-----------5-----|
G||-----2-----------4-------|-----6-----------4-------|-----2-----2-----4--------|--2--2-----------2--------|
D||--0-----------0----------|--0-----------0----------|--0-----------0-----------|--0-----------------------|
A||-------------------------|-------------------------|--------------------------|--------------4-----------|
E||-------------------------|-------------------------|--------------------------|--------------------------|


  E  E  E  E  E  E  E   E     E  E  E  E  Q    E  E     E  E  E  E  E  E  E  E     E  E  Q    Q    E  E   
-----------2--7-----9--10--|--5----------------------|--------5-----5-----------|---------------------2--|
--3--2--3-----7-----7------|--3--------0-------0--2--|--3-----3-----3-----3--2--|--0-----0---------2-----|
--------4-----7--7---------|--2-----2-----0----------|--4-----2--0--------2-----|--------0----6----------|
-----4--------6------------|-----0-------------------|--2--------------0--------|-----0-------5----2-----|
--2------------------------|-------------------------|-----2--------------------|------------------------|
---------------------------|--3----------------3--2--|--0-----------2-----------|--3----------6----2-----|


                                                       >                                                 
  E  E  E  E  E  E  Q       E  E  E  E  E  E  E  E     E  E  E  E  Q     E  E     E  E  E  E  Q    Q     
--0-----------------7----|--7-----------------------|--------------5----10--9--|--7-----5--3--2----0----|
-----3--2--3--0-----7----|--7-----------0-----------|--0-----3-----------------|-----3--------2---------|
-------------------------|--------0-----------0--2--|-----------0--------------|--0-----------3---------|
-----4-----------0-------|-----0-----7-----0--------|--------------------------|------------------------|
--2----------------------|--------------------------|-----2--------------------|------------------------|
--------------4----------|--3-----------------------|--0-----------------------|------------------------|


                                                                                                       (*
  E  E  E  E  E  E  Q       E  E  Q    E  E  Q       E  E  E  E  E    E      E         E       H        Q      
-----------5--5----------|--------3----2-----0----|--------------2-----------------<2>12--|------------------||
--3--2--3-----------3----|--3---------------------|--3--------3-------------<3>13---------|---<3>25-----3----||
--0--------------6-------|-----4-------------0----|--------2---------<2>12----------------|-------------2----||
--------------4----------|--2-------------2-------|-----4---------------------------------|-------------4----||
-------------------------|-------------0----------|--5------------------------------------|-------------5----||
-------------------------|------------------------|---------------------------------------|------------------||  fine....

Login or Register to remove this ad.

2 comments on Hoshizora

Awesome. Only quibble - the

5

Awesome. Only quibble - the fret markers for the harmonics should be two frets up. Beautiful tab though!

Beautiful.

5

Beautiful.