Login or Register to remove this ad.

Saikoukyuu Setsubi (Baka and Test - Summon the Beasts) Guitar Tab

Submitted: May 18, 2017 by Ttegdap (Last updated: Oct 04, 2017)

5
Average: 5 (1 vote)
Download | Listen
Game: Baka and Test - Summon the Beasts
Composer(s): Nijine
Style: Arrangement, Fingerstyle

AutoScroll: Slow | Medium | Fast
                                 (Finest Facilities)                                 


Acoustic Guitar
     E  E  E  E  E  E  E  E     E  E  E  E  E  E  E  E     E  E  E  S S E  E  E  E   
E||--0-----------1-----------|--3-----------0-----------|--1--------3-1-0--------0--|
B||--------------0-----0-----|--1-----1-----1-----1-----|--0-----0------1--3--1-----|
G||--0-----0--------0-----0--|-----0-----0-----0-----0--|-----0-----0------0-----0--|
D||-----2-----2--0-----------|--2-----------------------|---------------------------|
A||--3-----------------------|--------------3-----------|---------------3-----------|
E||--------------------------|--------------------------|--3------------------2-----|


  E  E  E  E  E  E  E  E     E  E  E  E  E  E  E  E     E  E  E  E  E  E  E  E   
--0-----------------------|--0-----------1-----------|--3-----------0-----------|
--1-----------3-----------|--------------0-----0-----|--1-----1-----1-----1-----|
--------2-----0-----0-----|--0-----0--------0-----0--|-----0-----0-----0-----0--|
-----3-----3-----0-----3--|-----2-----2--0-----------|--2-----------------------|
--------------------2-----|--3-----------------------|--------------3-----------|
--3-----------3-----------|--------------------------|--------------------------|


  E  E  E  E  Q    Q       E  E  E  E  E  E  E  E     E  E  E  E  E  E  E  E   
--1--0--1---------------|--------------------------|--0-----------1--0--1--5--|
--------------1----0----|--3-----------1-----1--3--|--------------0-----0-----|
--2--------2------------|--0-----0--------0--------|--0-----0--------0-----0--|
--------------2----0----|-----3-----3--2-----------|-----2-----2--0-----------|
------------------------|--3-----------3-----------|--3-----------------------|
--3-----------3----3----|--------3-----------------|--------------------------|


  E  E  E  E  E  E  E  E     E  E  E  S S E  E  E  E     E  E  E  E  E  E  E  E   
--3-----------0-----------|--1--------3-1-0--------0--|--0-----------------------|
--1-----1-----1-----1-----|--0-----0------1--3--1-----|--1-----------3-----------|
-----0-----0-----0-----0--|-----0-----0------0-----0--|--------2-----0-----0-----|
--2-----------------------|---------------------------|-----3-----3-----0-----3--|
--------------3-----------|---------------3-----------|--------------------2-----|
--------------------------|--3------------------2-----|--3-----------3-----------|


  E  E  E  E  E  E  E  E     E  E  E  E  E  E  E  S S    E  E  E  E  E  E  E  E   
--0-----------1--0--1--5--|--3-----------8--------7-5-|--3--1--0-----1--0--------|
--------------0-----0-----|--1-----1------------------|--1-----1--1--------3-----|
--0-----0--------0-----0--|-----0-----0---------------|-----0-----0--2-----2-----|
-----2-----2--0-----------|--2-----------7-----7------|-----------------3-----3--|
--3-----------------------|--------------8--8---------|--------------------2-----|
--------------------------|---------------------------|--3-----------------------|


  E  E  E  E  H           Q    E  E  Q.     S S    H        Q    Q     
-----------------------|----------0--1------0---|--0------------------|
--3-----------1--------|-------3--------------4-|---------------------|
--0-----0-----0--------|--0---------------------|--0------------------|
-----3-----3--2--------|--0---------------------|---------------------|
--3-----------3--------|------------------------|--3-------------3----|
--------3--------------|--3---------------------|-----------3---------|


  E  E  E  E  E  E  E  E     H        E  E  E   E     E  E  E  E  E  E  E  E   
--------0--1--5--3--2--3--|--0--------4--5--7--10--|--8-----8-----7-----5-----|
-----3--------------------|-----------0-----5------|--5-----5-----5-----5-----|
--0-----------------------|--0-----------5---------|--------------------------|
--0-----------------------|------------------------|-----7-----7-----7-----7--|
--------------------------|--3---------------------|--0-----------------0-----|
--3-----------------------|-----------0-----4------|--------------0-----------|


  E  E  E  E  E  E  E  E     E  E  E  E  E  E  E  E     E  E  E  E  H         
--3-----------2-----------|--5-----------------------|--3-----------3--------|
--------------------------|--------------1-----1-----|--0-----0-----0--------|
--0-----0-----2-----2-----|--5-----5--------2-----2--|-----0-----0--0--------|
--0--0-----0--0--0-----0--|-----7-----7--------------|--------------0--------|
--------------------------|--5-----------------0-----|-----------------------|
--------------2-----------|--------------2-----------|--3--------------------|


  E  E  E  E  E  E  E  E     E  E  E  E  E  E  E  E     E  E  E  S S E  E  E  E   
--0-----------1--0--1--5--|--3-----------0-----------|--1--------3-1-0--------0--|
--------------0-----0-----|--1-----1-----1-----1-----|--0-----0------1--3--1-----|
--0-----0--------0-----0--|-----0-----0-----0-----0--|-----0-----0------0-----0--|
-----2-----2--0-----------|--2-----------------------|---------------------------|
--3-----------------------|--------------3-----------|---------------3-----------|
--------------------------|--------------------------|--3------------------2-----|


  E  E  E  E  E  E  E  E     E  E  E  E  E  E  E  E     E  E  E  E  E  E  E  S S  
--0-----------------------|--0-----------1--0--1--5--|--3-----------8--------7-5-|
--------------3-----------|--------------0-----0-----|--1-----1------------------|
--2-----2-----0-----0-----|--0-----0--------0-----0--|-----0-----0---------------|
-----3-----3-----0-----3--|-----2-----2--0-----------|--2-----------7-----7------|
--------------------2-----|--3-----------------------|--------------8--8---------|
--3-----------3-----------|--------------------------|---------------------------|


  E  E  E  E  E  E  E  E     E  E  E  E  H          
--3--1--0-----1--0--------|-----------------------||
--1-----1--1--------3-----|--3-----------1--------||
-----0-----0--2-----2-----|--0-----0--------------||
-----------------3-----3--|-----3-----3--2--------||
--------------------2-----|--3-----------3--------||
--3-----------------------|--------3--------------||




Duration Legend
---------------
W - whole
H - half
Q - quarter
E - 8th
S - 16th
T - 32nd
X - 64th
. - note dotted
|-n-|  - n-tuplets


Tablature Legend
----------------
L - tied note
x - dead note
g - grace note
(n) - ghost note
> - accentuded note
NH - natural harmonic
AH - artificial harmonic
TH - tapped harmonic
SH - semi harmonic
PH - pitch harmonic
h - hammer on
p - pull off
b - bend
br - bendRelease
pb - preBend
pbr - preBendRelease
brb - bendReleaseBend
\n/ - tremolo bar dip
\n - tremolo bar dive
-/n - tremolo bar Release up
/n\ - tremolo bar inverted dip
/n - tremolo bar return
-\n - tremolo bar Release down
S - shift slide
s - legato slide
/ -  slide into from below or out of upwards
\ -  slide into from above or out of downwards
~ - vibrato
W - wide vibrato
tr - trill
TP - tremolo picking
T - tapping
S - slap
P - pop
< - fade in
^ - brush up
v - brush down
Login or Register to remove this ad.