Ads

Muttsurini (Baka and Test - Summon the Beasts) Guitar Tab

Submitted: Dec 25, 2017 by Ttegdap (Last updated: Dec 31, 2017)

5
Average: 5 (2 votes)
Download | Listen
Game: Baka and Test - Summon the Beasts
Composer(s): Nijine
Style: Arrangement, Fingerstyle

AutoScroll: Slow | Medium | Fast
                                  Muttsurini

     Q.     S S Q       Q    Q    Q       Q    Q    Q       Q    Q    Q     
E||--7------L-7-7----|--5----3----5----|--7--------------|-----------------|
B||--0------L-0-0----|--3----5----3----|--0--------------|-----------------|
G||--0------L-0-0----|--2----0----2----|--0--------------|-----------------|
D||------------------|-----------------|-------9----7----|--5----4----1----|
A||------------------|-----------------|-----------------|-----------------|
D||--9---------------|-----------------|--9--------------|-----------------|


  Q    Q    Q       Q    Q    E  E     Q    Q    Q       Q    Q    Q     
--7--------------|--5------------5--|--7---------3----|--0--------------|
-------0----0----|-------0----8-----|-------0----0----|-------0----0----|
-------0----0----|-------0----------|-------0----0----|-------0----0----|
-----------------|------------------|-----------------|-----------------|
--7--------------|--7---------------|--7--------------|--7--------------|
-----------------|------------------|-----------------|-----------------|


  Q     Q    Q        Q     Q    E   E      Q     Q     Q     
--7----------7----|--12----10-----------|--10----------------|
-------11---------|-----------------12--|--------------------|
--------9----9----|---------9----9------|---------9-----9----|
------------------|---------9----9------|--------10----10----|
--7---------------|--11-----------------|---0----------------|
------------------|---------------------|--------------------|


  Q     Q     Q       E  E  E  E  E  E     Q    Q    E  E     Q    Q    Q     
--8----------------|--------------0--2--|--3----2-------0--|--0--------------|
-------------------|-----0--1--3--------|-------3----3-----|-------0----0----|
--------9-----9----|--2-----------------|-------2----2-----|-------0----0----|
-------10----10----|--------------------|--4---------------|--5--------------|
--0----------------|--------------------|------------------|-----------------|
-------------------|--0-----------------|------------------|-----------------|


  Q    Q    E  E     Q    Q    Q       Q    Q    Q       Q    Q    Q     
------------------|-----------------|-----------------|-----------------|
--3------------0--|-----------------|-----------------|--0--------------|
-------4----5-----|--2----1----2----|--3----0---------|-----------------|
-------5----------|-----------------|------------4----|--1----9----7----|
------------------|--3--------------|--0--------------|--2--------------|
--5---------------|--4--------------|--4--------------|-----------------|


  Q    Q    Q       Q    Q    Q       Q    Q    E  E     Q    Q    Q     
-----------------|--7--------------|--5------------5--|--7---------3----|
-----------------|-------0----0----|-------0----8-----|-------0----0----|
-----------------|-------0----0----|-------0----------|-------0----0----|
--5----4----1----|-----------------|------------------|-----------------|
-----------------|--7--------------|--7---------------|--7--------------|
-----------------|-----------------|------------------|-----------------|


  Q    Q    Q       Q    Q    Q       Q    Q    Q       Q    Q    Q     
--0--------------|--0--------------|------------0----|-----------------|
------------0----|-------0----0----|--6--------------|--3--------------|
-------0----0----|-------1----1----|--4----4----4----|-------2----2----|
--2----2----2----|--2--------------|-------6----6----|-------2----2----|
-----------------|-----------------|-----------------|--0--------------|
-----------------|-----------------|--6--------------|-----------------|


  E  E  E  E  E  E     Q    Q    Q       Q    Q    Q       Q    Q    Q     
--------------0--3--|--5----6----3----|--2--------------|--2----3---------|
--1--0--1--3--------|--5--------------|-------4----4----|--0---------4----|
--2-----------------|--5--------------|-------4----4----|--0--------------|
--2-----------------|--4--------------|-----------------|--2--------------|
--0-----------------|-----------------|--2--------------|-----------------|
--------------------|-----------------|-----------------|-----------------|


  Q    Q    Q       E  E  E  E  E  E     Q    Q    Q       Q    Q    Q     
--0--------------|--------------------|-----------------|-----------------|
-------1----1----|--3--1--0--1--------|-----------------|-----------------|
-------2----2----|--------------1--2--|--0--------------|-----------------|
-----------------|--------------------|--1----4----1----|--2--------------|
--0--------------|--0-----------------|--2--------------|-------2---------|
-----------------|--------------------|-----------------|------------2----|


  H.              E  E  Q    Q       Q.     E  E  E     E  E  Q    Q     
---------------|------------------|------------------|------------------|
---------------|--1--1--1----1----|------------------|--0--0--0----0----|
---------------|--2--2--2----2----|--5---------0--2--|--0--0--0----0----|
---------------|--2--2--2----2----|--4------4--------|--0--0--0----0----|
---------------|--0---------------|--5---------------|------------------|
--L------------|------------------|------------------|--5---------------|


  Q.     E  E  E     Q    E  E  E  E     E  E  E  E  E  E     Q    Q    E  E   
------------------|-------------------|--------------------|------------------|
--0---------------|-------------------|--4--1--------------|------------------|
--0------------0--|--2----------0--2--|--------4--2--0-----|--2---------0--2--|
--2------2--4-----|--1----1--4--1-----|--1--------------4--|--2----2----2-----|
--3---------------|--2----2-----2-----|--2-----------------|--2----2----2-----|
------------------|-------------------|--------------------|--2----2----2-----|


  Q    Q    Q       E  E  E  E  E  E     Q    E  E  E  E     E  E  E  E  E  E   
-----------------|--0-----------------|-------2--3--2--0--|--------------------|
--0----1----3----|--1--1--1--0--------|-------------------|--3-----------------|
--0----2----4----|--2--2--2-----2--0--|-------------------|--0--0--0--2--0-----|
--2--------------|--------------------|--4----------------|--0--0--0--------4--|
-----------------|--0-----------------|-------------------|--------------------|
-----------------|--------------------|--0----------------|--5-----------------|


  Q    E  E  E  E     Q    Q    Q       Q    Q    Q       Q.     S S Q     
-------0--2--0-----|-----------------|-----------------|--7------L-7-7----|
----------------3--|--2----1----2----|--5----4----5----|--0------L-0-0----|
-------------------|--3----2----3----|--6----5----6----|--0------L-0-0----|
--2----------------|-----------------|-----------------|------------------|
--3----------------|-----------------|-----------------|------------------|
-------------------|--4--------------|--4--------------|--9---------------|


  Q    Q    Q       Q.     S S Q       Q    Q    Q       Q    Q    Q     
--5----3----5----|--7------L-7-7----|--5----3----5----|--7--------------|
--3----5----3----|--0------L-0-0----|--3----5----3----|--0--------------|
--2----0----2----|--0------L-0-0----|--2----0----2----|--0--------------|
-----------------|------------------|-----------------|-------9----7----|
-----------------|------------------|-----------------|-----------------|
-----------------|--9---------------|-----------------|--9--------------|


  Q    Q    Q       Q    Q    Q       Q    Q    Q       E  E  E  E  E  E   
-----------------|-----------------|-----------------|--0-----------------|
-----------------|-----------------|--0----0----0----|--------0-----0-----|
-----------------|-----------------|-----------------|-----0-----0-----0--|
--5----4----2----|--1--------------|--1----1----1----|--2-----------------|
-----------------|-------3----2----|--2----2----2----|--------------------|
-----------------|-----------------|-----------------|--------------------|


  E  E  E  E  E  E     E  E  E  E  E  E     E  E  E  E  E  E   
--1-----------0-----|--------------------|--------------------|
--------0-----------|--3-----------------|--1-----------------|
-----0-----0-----0--|--------2-----2-----|--------2-----2-----|
--2-----------------|-----2-----2-----2--|-----2-----2-----2--|
--------------------|--0-----------------|--0-----------------|
--------------------|--------------------|--------------------|


  E  E  E  E  E  E     E  E  E  E  E  E     E  E  E  E  E  E   
-----------------5--|--3-----------2-----|--0-----------------|
--------------------|--------3-----------|--------0-----0-----|
--2-----2--4--5-----|-----2-----2-----2--|-----0-----0-----0--|
-----4--------------|--4-----------------|--------------------|
--------------------|--------------------|--------------------|
--0-----------------|--------------------|--5-----------------|


  E  E  E  E  E  E     E  E  E  E  E  E     E  E  E  E  E  E   
--------------------|--------------------|--5-----------------|
--3-----------------|--------------0-----|--------5-----5-----|
--------4-----4-----|--5--------------5--|-----5-----5-----5--|
-----5-----5-----5--|--------4-----------|--4-----------------|
--------------------|-----0-----0--------|--------------------|
--5-----------------|--4-----------------|--------------------|


  E  E  E  E  E  E     E  E  E  E  E  E     Q    Q    Q       Q    Q    Q     
--------------------|--3-----------------|--3----2---------|-------5----3----|
--0--------------0--|-----5--4--5--0-----|-----------------|--1--------------|
--------0-----2-----|-----------------0--|--4----4----4----|-----------------|
-----2-----2--------|--2-----------------|--4----4----4----|--1----1----1----|
--------------------|--------------------|--2----2----2----|--2----2----2----|
--2-----------------|--------------------|-----------------|-----------------|


  Q    Q    Q       E  E  E  E  E  E     E  E  E  E  S S S S  
--2--------------|--------------------|--0-----------1-0---0-|
--0----0----0----|--0-----------------|--------0---------4---|
-----------------|-----2--0-----------|-----1-----1----------|
--1----1----1----|--1--------4--2--1--|--2-------------------|
--2----2----2----|--2-----------------|----------------------|
-----------------|--------------------|----------------------|


  E  E  E  E  E  E      E   E  E   E  E   E     E   E  E   E  E   E   
--7-----------0-----|--10--------------------|--8--------------------|
--------0-----------|------------------------|-----------------------|
--------------------|----------9------9------|---------9------9------|
-----6-----6-----6--|------10-----10-----10--|-----10-----10-----10--|
--7-----------------|---0--------------------|--0--------------------|
--------------------|------------------------|-----------------------|


  E  E  E  E  E  E      E  E   E  E  E  E     E  E  E  E  E  E   
--------------------|---------10--------8--|--8-----------------|
--7-----8-----9-----|--10------------7-----|--------0-----0-----|
-----7-----7-----7--|------7------7--------|-----0-----0-----0--|
--------------------|----------------------|--------------------|
--------------------|----------------------|--------------------|
--0-----------------|---0------------------|--5-----------------|


  E  E  E  E  E  E     Q    Q    Q       Q    Q    Q       E  E  E  E  E  E   
--7-----------------|--5----3----5----|--3----2----3----|--2-----------------|
--------0-----0-----|-----------------|--5----5----5----|--------2-----2-----|
-----0-----0-----0--|--5----5----5----|--0----0----0----|-----3-----3-----3--|
--------------------|--4----4----4----|-----------------|--------------------|
--------------------|--0----0----0----|-----------------|--------------------|
--5-----------------|-----------------|--5----5----5----|--4-----------------|


  Q    Q    Q       Q.     S S Q       Q    Q    Q       Q.     S S Q     
-------0----2----|--0------L-0-0----|-----------------|--0------L-0-0----|
--4--------------|--0------L-0-0----|--1----0---------|--0------L-0-0----|
-----------------|--0------L-0-0----|--2----0----2----|--0------L-0-0----|
------------1----|------------------|------------4----|------------------|
--2----4---------|------------------|--3----2----0----|------------------|
-----------------|--2---------------|-----------------|--2---------------|


  Q    Q    Q       Q    E  E  E  E     Q    E  E  E  E     Q    E  E  E  E   
-----------------|-------------------|-------------------|-------0--0--0--0--|
--1----0---------|-------------------|-------0--0--0--0--|--0----0--0--0--0--|
--2----0----2----|--0----0--0--0--0--|--0----0--0--0--0--|--0----0--0--0--0--|
------------4----|--2----------------|--2----2--2--2--2--|--2----------------|
--3----2----0----|--2----------------|--2----------------|-------------------|
-----------------|--2----------------|--2----2--2--2--2--|--2----2--2--2--2--|


  H.              H.             
--0------------|--L------------||
--0------------|--L------------||
--0------------|--L------------||
--2------------|--L------------||
--2------------|--L------------||
--2------------|--L------------||
Login or Register to remove this ad.