Ads

Taiyou ga Ippai (Baka and Test - Summon the Beasts 2) Guitar Tab

Submitted: Sep 15, 2017 by Ttegdap (Last updated: Oct 04, 2017)

5
Average: 5 (2 votes)
Download | Listen
Game: Baka and Test - Summon the Beasts 2
Composer(s): Nijine
Style: Arrangement, Fingerstyle

AutoScroll: Slow | Medium | Fast
                                Taiyou ga Ippai

     H        H           Q    Q    Q    Q       Q    Q    Q    Q     
E||--------------------|--0---------0----1----|--0--------------0----|
B||--------------------|--1----4----1---------|--0---------0---------|
G||--------------------|----------------------|----------------------|
D||-----------2--------|-------2--------------|-------2--------------|
A||--------------------|--0-------------------|----------------------|
E||--------------------|----------------------|--4-------------------|


  Q    Q    Q    Q       Q    Q    Q    Q       Q    Q    Q    Q     
--0--------------0----|----------------------|----------------------|
-------3----2---------|--3--------------3----|--3----1----0----3----|
--3---------3---------|--2---------2---------|--2---------2---------|
-------2--------------|-------0--------------|-------0--------------|
----------------------|----------------------|----------------------|
--3-------------------|--2-------------------|--1-------------------|


  Q    Q    Q    Q       Q    Q    Q    E  E     Q    Q    Q    Q     
----------------------|-----------------------|----------------------|
--1-------------------|--0--------------------|----------------------|
--2--------------2----|--2---------2-------2--|--1-------------------|
------------2---------|--1----1---------4-----|--0---------0----2----|
-------0--------------|--2--------------------|--2----2--------------|
--0-------------------|-----------------------|--0-------------------|


  Q    Q    E  E  E  E     Q    Q    Q    Q       Q    Q    Q    Q     
--0---------0-----1-----|--0--------------0----|--5--------------0----|
--1----4----1--------1--|--0---------0---------|----------------------|
------------------2-----|----------------------|--3---------0----3----|
-------2-------2--------|-------2--------------|-------0--------------|
--0---------------------|----------------------|----------------------|
------------------------|--4-------------------|--3-------------------|


  Q    Q    Q    Q       Q    Q    Q    Q       H        H         
----------------------|--3-------------------|--0-----------------|
--3--------------3----|--3--------------3----|--1--------1--------|
--2-------------------|------------0---------|--0--------2--------|
------------0---------|-------0--------------|-----------3--------|
-------0--------------|--2-------------------|--3-----------------|
--2-------------------|----------------------|--------------------|


  Q    Q    H           W                   Q    Q    Q    Q     
---------------------|-------------------|----------------------|
---------------------|-------------------|-----------------0----|
--2---------2--------|--1----------------|--2---------2---------|
-------0-------------|--0----------------|-------2--------------|
--2------------------|--2----------------|--0-------------------|
---------------------|--0----------------|----------------------|


  Q    Q    Q    Q       W                   Q    Q    Q    Q     
-----------------0----|--5----------------|------------5----3----|
--1----0----1---------|--5----------------|----------------------|
----------------------|--5----------------|-------2--------------|
----------------------|-------------------|----------------------|
----------------------|--0----------------|----------------------|
----------------------|-------------------|----------------------|


  Q    Q    Q    E  E     Q    Q    Q    Q       Q    Q    Q    Q     
--3--------------1--0--|-----------------3----|--0-------------------|
--3---------3----------|--3-------------------|--3---------3---------|
--2----2---------------|--4---------4---------|--0----0---------0----|
--0--------------------|--5----5--------------|----------------------|
-----------------------|--5-------------------|--3-------------------|
-----------------------|----------------------|----------------------|


  Q    Q    Q    Q       Q    Q    Q    E  E     Q    Q    Q    Q     
--0---------1----0----|--0--------------------|----------------------|
--1-------------------|--0--------------3--1--|--0--------------3----|
-------0--------------|------------2----------|--1-------------------|
----------------------|-------3---------------|------------2---------|
----------------------|--2--------------------|-------2--------------|
----------------------|-----------------------|--0-------------------|


  Q    Q    Q    Q       Q    Q    Q    Q       Q    Q    Q    E  E   
----------------------|-----------------0----|--5--------------7--8--|
--1-------------------|------------1---------|--5--------------------|
------------2---------|-------2----2---------|------------2----------|
-------2---------2----|-------2---------2----|-------2---------------|
--0-------------------|----------------------|-----------------------|
----------------------|--3-------------------|--2--------------------|


  Q    Q     Q    Q       Q    Q    Q    E  E     Q    Q    Q    Q     
--7--------------------|--3--------------5--6--|--5---------3---------|
--7---------10---------|-----------------------|----------------------|
-------------8---------|------------3----------|------------0---------|
-------------7---------|-------0---------------|-------2---------2----|
-------9----------9----|-----------------------|--0-------------------|
--7--------------------|--0--------------------|----------------------|


  Q    Q    Q    Q       Q    Q    Q    Q       Q    Q    Q    Q     
--3-------------------|-------1----3----5----|--5-------------------|
------------3---------|----------------------|----------------------|
-------2--------------|--2-------------------|--5-------------------|
--0--------------0----|----------------------|------------3---------|
----------------------|----------------------|-------3---------3----|
----------------------|----------------------|--1-------------------|


  Q    Q    Q    Q       Q    Q    Q    Q       Q    Q    Q    Q     
-------5----7----5----|--5-------------------|----------------------|
----------------------|----------------------|----------------------|
----------------------|--2-------------------|--2-------------------|
--7----7----9----7----|------------2---------|------------2---------|
----------------------|-------2---------2----|-------2---------2----|
----------------------|--0-------------------|----------------------|


  W                   H        H           Q    Q    Q    Q     
--4----------------|--------------------|--0---------0----1----|
--0----------------|--------------------|--1----4--------------|
-------------------|--------------------|----------------------|
-------------------|-----------2--------|------------2---------|
-------------------|--------------------|--0----3--------------|
--0----------------|--------------------|----------------------|


  Q    Q    Q    Q       Q    Q    Q    Q       Q    Q    Q    Q     
--0--------------0----|-----------------0----|----------------------|
--0-------------------|--5----3----2---------|--3--------------3----|
----------------------|--3-------------------|--2-------------------|
------------2---------|------------2---------|------------0---------|
-------2--------------|-------1--------------|-------0--------------|
--4-------------------|--3-------------------|--2-------------------|


  Q    Q    Q    Q       Q    Q    Q    Q       Q    Q    Q    E  E   
----------------------|----------------------|-----------------------|
--3----1----0----3----|--1-------------------|--0--------------------|
--2-------------------|--2--------------2----|--2---------2-------2--|
------------0---------|--2-------------------|--1----1---------4-----|
-------0--------------|-------0----3---------|--2---------2----------|
--1-------------------|--0---------0---------|-----------------------|


  Q    Q    Q    Q       Q    Q    E  E  E  E     Q    Q    Q    Q     
----------------------|--0---------0-----1-----|--0--------------0----|
------------0---------|--1----4----1--------1--|--0---------0---------|
--1----2--------------|------------------2-----|----------------------|
--0--------------2----|-------2-------2--------|-------2--------------|
--2-------------------|--0---------------------|----------------------|
--0---------0---------|------------------------|--4-------------------|


  Q.     E  Q    Q       Q.     E  Q    Q       Q    Q    Q    Q     
--5-------------------|----------------------|--3-------------------|
-----------------5----|--3--------------3----|--3---------0----3----|
--3------3--3----3----|--2-------------------|------------0----0----|
---------5--5---------|---------0--0---------|-------0--------------|
----------------------|---------0--0---------|--2-------------------|
--3-------------------|--2-------------------|----------------------|


  H        H           Q    Q    Q    Q       W                 
--0-----------------|----------------------|-------------------|
--1--------1--------|-----------------1----|-------------------|
--0--------2--------|--2---------2---------|--1----------------|
-----------3--------|-------3--------------|--0----------------|
--3-----------------|--2-------------------|--2----------------|
--------------------|----------------------|--0----------------|


  Q    Q    Q    Q       H        H           W                  
----------------------|--------------------|--5----------------||
-----------------1----|--3--------0--------|--5----------------||
--2---------2---------|--------------------|--5----------------||
-------2--------------|--3--------0--------|--7----------------||
--0-------------------|--------------------|--7----------------||
----------------------|--------------------|--5----------------||
Login or Register to remove this ad.