Ads

Koi?? (Baka and Test - Summon the Beasts 2) Guitar Tab

Submitted: May 06, 2017 by Ttegdap (Last updated: Oct 04, 2017)

5
Average: 5 (2 votes)
Download | Listen
Game: Baka and Test - Summon the Beasts 2
Composer(s): Nijine
Style: Arrangement, Fingerstyle

AutoScroll: Slow | Medium | Fast
E|-5------------------0---|----------0------------0---|-2-------------------|--------------------|
B|-3----3---2---0---------|-2----2-------3----3-------|-3----3----0----2----|-3-------0----------|
G|--------------0---------|-2------------4------------|-----------2---------|-----2--------2-----|
D|------------------------|---------------------------|---------------------|-0-------2----0-----|
A|------------------------|-0----1-------2------------|-----------0---------|--------------------|
E|-2------------3---------|---------------------------|-0-------------------|--------------------|


E|------------------------|---------------------|-----------5-----------|---------------------|
B|------0---------3---2---|-2-----0---0---------|---------------3-------|---------------------|
G|-2---------2------------|-0---------------2---|-2---------------------|-----------------2---|
D|-0----2----0------------|-----------2---------|-4-----------------4---|-5-----4---5---------|
A|------------------------|-2---------0---------|-5---------------------|-----------0---------|
E|------------------------|---------------------|-----------------------|-0-------------------|


E|-------------0---2------------|---------------------|------0---------0---2---|-3-------2------------0----|
B|---------3------------3---2---|-2-----0---0---------|-----------3------------|---------0----3-------0----|
G|-----2------------------------|-0---------0-----2---|-2---------4------------|------------------0--------|
D|-4----------------------------|-2---------0---------|-4---------4------------|-----2---------------------|
A|-5----------------------------|-2-------------------|-4---------2------------|---------------------------|
E|------------------------------|-----------3---------|-2----------------------|-0------------3------------|


E|-0----------------------------|---------------------|-------------5-------------|
B|-------------3---2----3---2---|-2-----0---0---------|-----3---------------------|
G|---------2-------2------------|-0---------2-----2---|-2-------2-----------------|
D|-----2-----------2------------|-2---------2---------|-0---------------------4---|
A|-0---------------0------------|-2---------4---------|-----------------0---------|
E|------------------------------|---------------------|---------------------------|


E|---------------------|-----0------------------------|---------------------|------0------------0---2---|
B|---------------------|---------3---2--------3---2---|-2-----0---0---------|--------------3------------|
G|-0---------0-----2---|-----------------2------------|-----------------2---|-2-------------------------|
D|-------4-------------|-4----------------------------|---------------------|-2----2---4---0------------|
A|-----------0---------|-5----------------------------|-2---------4---------|---------------------------|
E|-3-------------------|------------------------------|---------------------|---------------------------|


E|-3-------2------------0----|-------------3---2----2---3---|-5------------------------0---|
B|--------------3-------2----|-3-------3---3----------------|------3---2---0-------0-------|
G|-----0---------------------|-----2-----------2------------|----------2---2---0-----------|
D|---------------------------|-0----------------------------|------4-------------------4---|
A|---------2----2-------4----|------------------------------|------------------------------|
E|-0----------------3--------|------------------------------|-2------------3---------------|


E|----------0------------0---|-2---------------2----3----|-5---------------------|
B|-2----2-------3----3-------|-----0---2---3-------------|---------3---2---3-----|
G|-2------------4------------|---------------------------|-----------------------|
D|-2------------4------------|---------------------------|-----4-----------------|
A|-0----1-------2------------|-2---------------1----1----|-0---------------------|
E|---------------------------|---------------------------|-----------------------|


E|-------------------------0-------|-7---------------------|----0--------------------------5---|
B|-3-------0---3---2---3-------3---|-------------7---5-----|-3-----3-------3---3---------------|
G|---------------------------------|-----7-----------------|-----------0-----------------------|
D|-----4---------------0---4-------|-0-------4---0---6-----|-------0---------------0---4-------|
A|-2-----------------------4-------|-----------------------|-------------------0---------------|
E|---------------------------------|-----------------------|-3---------------------------------|


E|-5----3---------0----|-------------2---3----5----|-2------|
B|-3---------3----2----|-3-------3-------3----2----|-3------|
G|-----------4---------|-----2-----------0----2----|-2------|
D|-----------4---------|-0--------------------2----|-0------|
A|-2---------2----4----|----------------------0----|--------|
E|---------------------|---------------------------|--------|
Login or Register to remove this ad.