Ads

Kaisou Narration (Baka and Test - Summon the Beasts 2) Guitar Tab

Submitted: Jun 24, 2017 by FingerstyleGaming (Last updated: Jun 29, 2017)

5
Average: 5 (2 votes)
Download | Listen
Game: Baka and Test - Summon the Beasts 2
Composer(s): Nijine
Style: Arrangement, Fingerstyle

AutoScroll: Slow | Medium | Fast
                                  Kaisou Narration                                    


Nylon Guitar
     E  E  E  Q.        E  E  E  Q.        E  E  E  Q.        E  E  E  E  E  E   
E||-----------0------|-----------0------|-----------0------|-----------0--0--2--|
B||-----------0------|-----------0------|-----------0------|-----------0--------|
G||-----------0------|-----------0------|-----------0------|-----------0--------|
D||--------2---------|--------2---------|--------2---------|--------2-----------|
A||-----2------------|-----2------------|-----2------------|-----2--------------|
E||--0---------------|--0---------------|--0---------------|--0-----------------|


  E  E  E  Q    E     E  E  E  Q    E     E  E  E  E  Q       E  E  E  E  E  E   
--3----------------|--2-------------0--|-------------------|--------------------|
--0-------------0--|-------------------|--4--------0-------|--------------------|
-----------0-------|--2----------------|--------------4----|--2--------0-----0--|
--------2----------|-----------2-------|-----1--4----------|--------2--2--4-----|
-----2-------------|-----0--3----------|--2----------------|-----2--------------|
--0----------------|--2----------------|-------------------|--0-----------------|


  E  E  E  Q.        E  E  E  Q.        E  E  E  Q    S  S    H        E  E   
--0---------------|------------------|---------------------|-----------0--2--|
-----------1------|--1---------------|---------------------|-----------------|
--0-----0---------|-----------2------|--0--------0----2p-0-|-----------------|
-----2------------|--2---------------|--2-----2------------|--4--------------|
--3---------------|-----0--3--3------|--2--2---------------|--6--------------|
------------------|--2---------------|---------------------|--7--------------|


  E  E  E  Q    E     E  E  E  Q    E     E  E  E  E  E  E     E  E  E  E  E  E   
--3----------------|--2-------------0--|-----------8--7--5--|--4-----------0--2--|
--0-------------0--|-------------------|--4-----0--7--------|--0--------0--------|
-----------0-------|--2----------------|--2-----------------|--------------------|
--------2----------|-----------2-------|-----4--------------|--------2-----------|
-----2-------------|-----0--3----------|--2--------6--------|-----2--------------|
--0----------------|--2----------------|--------------------|--0-----------------|


  E  E  E  Q    E     E  E  E  Q    E     E  E  E  Q.        H.            
--3-------------0--|----------------2--|--3---------------|--2------------|
--0--------1-------|--5----------------|--0--------0------|--0------------|
--------0-------0--|--2--------2-------|--------0---------|--2------------|
-----2-------------|--------2----------|-----2------------|--1------------|
--3----------------|-----3-------------|--2---------------|--2------------|
-------------------|--2----------------|------------------|---------------|


  E  E  E  Q.        E  E  E  Q.        E  E  E  Q.        E  E  E  E  E  E   
--0--------0------|-----------0------|-----------0------|-----------0-----0--|
-----------0------|-----------0------|-----------0------|-----------0--------|
-----------0------|-----------0------|-----------0------|-----------0--------|
--------2---------|--------2---------|--------2---------|--------2-----2-----|
-----2------------|-----2------------|-----2------------|-----2--------------|
--0---------------|--0---------------|--0---------------|--0-----------------|


                                 >  >                                           
  E  E  E  Q.        E  E  E  E  E  E     E  E  E  Q.        E  E  E  E  E  E   
--0--------0------|-----------0--0--2--|--3---------------|--------------2--3--|
--1-----3---------|--------3-----------|-----------1------|-----------1--------|
--0---------------|--------------------|--------2---------|--------2-----------|
-----2------------|-----2--------------|-----2------------|-----2--------------|
--3---------------|--3-----------------|--0---------------|--0-----------------|
------------------|--------------------|------------------|--------------------|


  E  E  E  Q.        E  E  E  Q    E     E  E  E  Q.        E  E  E  E  E  E   
--0---------------|-------------------|------------------|--------------3--5--|
--0---------------|--0----------------|-----------3------|-----------3--------|
-----------0------|-----------0----0--|--------4---------|--------4-----------|
--------2---------|--2-----2----------|--4---------------|-----4--------------|
-----2------------|-----2-------------|--2--2------------|--2-----------------|
--0---------------|--0----------------|------------------|--------------------|


  E  E  E  Q.        E  E  E  E   E   E      E  E  E   Q.        E  E  E   E  E   E   
--5--------3------|-----------0----------|--------------------|----------------------|
--5-----3--5------|--------3-----10--12--|--12--------10------|---------------8--10--|
------------------|-----0----------------|--------------------|----------------------|
-----5------------|----------------------|---------9--10------|--------9--10---------|
--3---------------|--3-------------------|---0--7-------------|--0--7----------------|
------------------|----------------------|--------------------|----------------------|


   E   E   E   Q.        E   E   E  Q.        H.              H.            
----------------------|--------------------|--0------------|---------------|
--12----------10------|--------------------|--0------------|---------------|
---------------9------|-------------9------|--0------------|--8------------|
----------10----------|---------10---------|---------------|--7------------|
---9--12--------------|--9--12-------------|--7------------|--9------------|
----------------------|--------------------|--7------------|--7------------|


  E  E  E  Q.        E  E  E  Q    T  T T T    E  E  E  Q.        E  E  E  Q.      
-----------0------|-----------0-------------|--5--------3------|--2--------0------|
--0--------0------|-----------0----1p-0---0-|-----------3------|-----------1------|
-----------0------|-----------0---------3---|--------0---------|--------0---------|
--------2---------|--------2----------------|-----2------------|-----2------------|
-----2------------|-----2-------------------|--3---------------|--3---------------|
--0---------------|--0----------------------|------------------|------------------|


  E  E  E  Q.        E  E  E  Q    E     E  E  E  Q.        E  E  E  E  E  E   
--0---------------|-------------------|------------------|--------------------|
-----------3------|-----------3----1--|--1---------------|--0-----------1--3--|
--------2---------|--------2----------|--0--------0------|--0--------0--------|
-----4------------|-----4-------------|--------0---------|--------0-----------|
--5---------------|--5----------------|-----3------------|-----2--------------|
------------------|-------------------|--3---------------|--3-----------------|


  E  E  E  Q.        E  E  E  E  E  E     E  E  E  Q    E      E  E  E  Q.      
--0--------0------|-----------0--2--3--|--8-------------7--|-------------------|
--------3---------|--------3-----------|-----------7-------|--10--------7------|
-----0------------|-----0--------------|--------9----------|---------9---------|
------------------|--------------------|-----7-------------|------7------------|
--3---------------|--3-----------------|--9----------------|---9---------------|
------------------|--------------------|-------------------|-------------------|


  E  E  E  Q.        E  E  E  E  E   E     E  E  E  E  E  E     H.            
------------------|---------------------|--------------------|--7------------|
--8---------------|-----------8--7------|-----------------7--|---------------|
-----------9------|-----------9------9--|--8-----------8-----|---------------|
--------9---------|--------9--9--7------|--------7--9--------|---------------|
-----7------------|-----7-----------10--|-----9--------------|---------------|
--7---------------|--7------------------|--7-----------------|---------------|


  H        E  E      Q.      Q    E     Q.     E  E  E     Q.     Q.      
-----------------|-------------------|--0---------------|----------------|
--8--------7--8--|--12---------------|--0---------7--8--|--3-------------|
--0--------------|--11------11----7--|------------------|--2------0------|
-----------------|---0---------------|---------7--------|--0-------------|
--7--------------|-------------------|--7---------------|--2-------------|
-----------------|-------------------|--8---------------|----------------|


  E  E  E  Q.        E  E  E  Q.        E  E  E  E  E  E     E  E  E  E  E  E   
-----------5------|-----------3------|--3--------0--2--0--|--------------------|
--1--0--1---------|--0-----0---------|--------3-----------|--0--------0--------|
-----------2------|-----3-----0------|-----0--------------|--------2--------2--|
--------2---------|--------0---------|--------------------|-----4--------4-----|
--0--3------------|-----2------------|--3-----------------|--2--------2--------|
------------------|--3---------------|--------------------|--------------------|


  E  E  E  E  E  E     E  E  E  Q    E     E   E   E  E   E  E     E  E  E  Q.      
--3-----------2--3--|--7----------------|-----------------------|------------------|
--0-----------------|--7--------7-------|--------------------8--|--3---------------|
--0--------0--------|--7-----7-------7--|--9----------9--11-----|-----------4------|
--------2-----------|--0----------------|---------12------------|--------7---------|
-----2--------------|-----9-------------|-----10----------------|-----5------------|
--0-----------------|-------------------|--8--------------------|--3---------------|


  E  E  E  Q    E     Q.     Q.        E  E  E  E  E  E     E  E  E  E  E  T  T T T  
-----------7----5--|--3------2------|--0-----------------|--------------------------|
--1--0--1----------|----------------|--0-----------------|-----------------1p-0---0-|
--------0----------|--0------2------|--0--------0--------|-----------0----------3---|
-----2-----7-------|----------------|--------2-----2-----|--------2-----2-----------|
--3----------------|--2------2------|-----2-----------2--|-----2--------------------|
-------------------|----------------|--0-----------------|--0-----------------------|


                                      |----5----|                       
  E  E  E  E  E  E     E  E  E  E  E  T  T  T T T    E  E  E  E  E  E   
--5-----------------|-----------------------------|--3-----------------|
--------------------|-----------------0h-1p-0---0-|--------------------|
--------------------|-------------------------3---|-----------0--------|
--------------------|-----------------------------|--------2-----2-----|
--------0--3--0-----|--------0--3--0--------------|-----2-----------2--|
--0--1-----------1--|--0--1-----------------------|--0-----------------|


  E  E  E  E  E  T  T T T    E  E  E  E  E  E     E  E  E  E  E  E     E  E  E  E  E  E   
--------------------------|--2-----------------|--------------------|--0-----------------|
-----------------1p-0---0-|--------------------|-----------4--------|--------------------|
-----------0----------3---|--------------------|--------------------|-----------0--------|
--------2-----2-----------|--------------------|--------------------|--------2-----2-----|
-----2--------------------|--------0--3--0-----|--------0--3--0-----|-----2-----------2--|
--0-----------------------|--0--2-----------2--|--0--2-----------2--|--0-----------------|


  E  E  E  E  E  E     H.             
--0-----------------|--0------------||
-----------0--------|--0------------||
-----------0--------|--0------------||
--------2-----2-----|--2------------||
-----2-----------2--|--2------------||
--0-----------------|--0------------||


   Alternative for M42            Alternative for M74
                                                 |----5----|
   E  E  E  Q    T  T T T         E  E  E  E  E  T  T  T T T
e-----------0-------------|    e-----------------------------|
B-----------0-------------|    B-----------------------------|
G-----------0----5h-6p3h5-|    G-----------------5h-6-p5p3h5-|
D--------2----------------|    D-----------------------------|
A-----2-------------------|    A--------0--3--0--------------|
E--0----------------------|    E--0--1-----------------------|




Duration Legend
---------------
W - whole
H - half
Q - quarter
E - 8th
S - 16th
T - 32nd
X - 64th
. - note dotted
|-n-|  - n-tuplets


Tablature Legend
----------------
L - tied note
x - dead note
g - grace note
(n) - ghost note
> - accentuded note
NH - natural harmonic
AH - artificial harmonic
TH - tapped harmonic
SH - semi harmonic
PH - pitch harmonic
h - hammer on
p - pull off
b - bend
br - bendRelease
pb - preBend
pbr - preBendRelease
brb - bendReleaseBend
\n/ - tremolo bar dip
\n - tremolo bar dive
-/n - tremolo bar Release up
/n\ - tremolo bar inverted dip
/n - tremolo bar return
-\n - tremolo bar Release down
S - shift slide
s - legato slide
/ -  slide into from below or out of upwards
\ -  slide into from above or out of downwards
~ - vibrato
W - wide vibrato
tr - trill
TP - tremolo picking
T - tapping
S - slap
P - pop
< - fade in
^ - brush up
v - brush down
Login or Register to remove this ad.

3 comments on Kaisou Narration

Here's a video of me playing

5

Here's a video of me playing this for the first time, you'll get a feel for how difficult the song is as well as my pointers on how to play it:

https://youtu.be/bXVrVNy19bg

Edit:

Wonder why this file says it has no audio? Also this should be played "let ring" as much as possible to match the originals sound.

I think he usually posts a

I think he usually posts a youtube playthrough but hasn't done so for this tab - i've chucked up a midi from the gp file in the meantime