Jojo (Bahamut Lagoon) Guitar Tab

Submitted: Jun 27, 2012 by hslesperance (Last updated: Aug 10, 2012)

0
Download | Listen
Game: Bahamut Lagoon
Composer(s): Noriko Matsueda
Style: Transcription

AutoScroll: Slow | Medium | Fast
Jojo
Bahamut Lagoon
Composed by Noriko Matsueda
Tabbed by hslesperance
6/27/12

Standard Tuning




Guitar 1

  Q  E Q     Q   E    +H      E E  E E
|-3--2-------------|-------------------|
|------3---------0-|--(0)--------------|
|------------2-----|---------------0-2-|
|------------------|------------2------|
|------------------|-------------------|
|------------------|-------------------|


   H     Q.    E    +E   Q      E E E E E
|----------------|-------------------------|
|--0-------------|----------------------0--|
|--------2-------|-------0------------0----|
|--------------4-|--(4)-----------2-4------|
|----------------|--------------2----------|
|----------------|-------------------------|


  Q  E Q    Q     E   +H         E  E E  E     H      H
|-3--2--------------|----------------------|------------------|
|------3----------0-|-(0)------------------|---0------3-------|
|-----------2-------|-----------------0--2-|------------------|
|-------------------|---------------2------|------------------|
|-------------------|----------------------|------------------|
|-------------------|----------------------|------------------|


      Q    E  Q    Q    E    +H     E  E  E  E
||---15---14--------------|--------------------|
||o----------15--------12-|-(12)---------------|
||----------------14------|--------------12-14-|
||------------------------|-----------14-------|
||o-----------------------|--------------------|
||------------------------|--------------------|


   H     Q.    E    +E   E  +H.
|----------------|-----------------|
|-12-------------|-----------------|
|-------14----11-|-(11)-12-(12)----|
|----------------|-----------------|
|----------------|-----------------|
|----------------|-----------------|


   Q   E  Q    Q    E    +H      E  E  E  E    H     Q.    E    +W
|-15--14--------------|---------------------|-------------12-|-(12)-----||
|--------15--------12-|-(12)----------------|-12----15-------|---------o||
|-------------14------|---------------12-14-|----------------|----------||
|---------------------|------------14-------|----------------|----------||
|---------------------|---------------------|----------------|---------o||
|---------------------|---------------------|----------------|----------||




Guitar 2

  H       Q.     E    +H      Q    Q
|--------12--------|-------------------|
|---------------15-|-(15)----12--------|
|------------------|--------------12---|
|------------------|-------------------|
|------------------|-------------------|
|------------------|-------------------|


   H     Q.    E    +E   E  +H.
|----------------|-------------------------|
|----------------|-------------------------|
|----------------|-------------------------|
|-14----12----12-|-(12)-14-(14)------------|
|----------------|-------------------------|
|----------------|-------------------------|


  H      E  E  E  E    Q    E  Q    Q    E    +H      Q.    E
|-------------12-14-|-15---14-----------12-|-(12)----------12-|
|----------12-------|---------15---12------|---------15-------|
|-------------------|----------------------|------------------|
|-------------------|----------------------|------------------|
|-------------------|----------------------|------------------|
|-------------------|----------------------|------------------|


     +H         Q    Q        H.          Q
||--(12)-------------0----|--------------------|
||o-----------------------|---0----------------|
||------------------------|---------------0----|
||--------------2---------|--------------------|
||o-----------------------|--------------------|
||------------------------|--------------------|


   H     Q.    E    +E   E  +H.
|----------------|-----------------|
|----------------|-----------------|
|----------------|-----------------|
|--2-----0-----0-|--(0)--2--(2)----|
|----------------|-----------------|
|----------------|-----------------|


   Q   Q    Q    Q        Q   Q  Q     Q       H     Q.    E    +W
|----------------0----|---2---3--2----------|--0-----------0-|--(0)-----||
|-----------0---------|----------------3----|--------3-------|---------o||
|---------------------|---------------------|----------------|----------||
|------2--------------|---------------------|----------------|----------||
|---------------------|---------------------|----------------|---------o||
|---------------------|---------------------|----------------|----------||

W - whole
H - half
Q - quarter
E - 8th
S - 16th
+ - note tied to previous
. - note dotted
Login or Register to remove this ad.