Green Continent Campbell (Bahamut Lagoon) Guitar Tab

Submitted: Jun 26, 2012 by hslesperance (Last updated: Aug 10, 2012)

0
Download | Listen
Game: Bahamut Lagoon
Composer(s): Noriko Matsueda
Style: Transcription

AutoScroll: Slow | Medium | Fast
Green Continent Campbell
Bahamut Lagoon
Composed by Noriko Matsueda
Tabbed by hslesperance
6/26/12

Standard Tuning


  Q  Q  H      +Q.   S S H      +H     E. E. E   Q.   S S H
|------------|----------------|----------------|---------------|
|------------|----------------|----------------|---------------|
|-------1----|-(1)------------|----------------|---------------|
|------------|-------4-3-4----|-(4)----------1-|-4----3-1-3----|
|------------|----------------|--------3--4----|---------------|
|----4-------|----------------|----------------|---------------|


  +Q   Q  H      +Q.   S S H      +H     E. E. E   W
|--------------|----------------|----------------|------|
|--------------|----------------|----------------|------|
|---------1----|-(1)------------|----------------|------|
|-(3)----------|-------4-3-4----|-(4)----------1-|------|
|--------------|----------------|--------3--4----|-4----|
|------4-------|----------------|----------------|------|


  Q  E E Q  Q    Q  E E Q  Q    H    +E  E E E   E S S +H.
|--------------|--------------|--------------6-|-6-8----------|
|----6---6-----|----7-6-7-----|------------7---|-----9-(9)----|
|------8----6--|-----------6--|-5----(5)-8-----|--------------|
|-6------------|-8------------|----------------|--------------|
|--------------|--------------|----------------|--------------|
|--------------|--------------|----------------|--------------|


  H    E. E. E   Q  E E H      +E  H    E E E    E S S +H.
|--------------|--------6----|-(6)------6-8-9-|-11-8----------|
|------6-----6-|-------------|----------------|------9-(9)----|
|---------8----|-6--5-6------|----------------|---------------|
|--------------|-------------|----------------|---------------|
|--------------|-------------|----------------|---------------|
|--------------|-------------|----------------|---------------|


  Q  E E Q  Q    Q  E E Q  Q    H    +E  E E E   E S S +H.
|--------------|--------------|--------------6-|-6-8----------|
|----6---6-----|----7-6-7-----|------------7---|-----9-(9)----|
|------8----6--|-----------6--|-5----(5)-8-----|--------------|
|-6------------|-8------------|----------------|--------------|
|--------------|--------------|----------------|--------------|
|--------------|--------------|----------------|--------------|


  Q  E E Q  Q    Q.   E H      H    Q  Q    W
|--------------|-------------|------------|------*|
|-6----6-------|-------------|------------|------*|
|----8---6-----|------6-6----|-5-------5--|-6----*|
|-----------6--|-8-----------|------8-----|------*|
|--------------|-------------|------------|------*|
|--------------|-------------|------------|------*|

W - whole
H - half
Q - quarter
E - 8th
S - 16th
+ - note tied to previous
. - note dotted
Login or Register to remove this ad.