Friendship (Bahamut Lagoon) Guitar Tab

Submitted: Jun 27, 2012 by hslesperance (Last updated: Aug 10, 2012)

0
Download | Listen
Game: Bahamut Lagoon
Composer(s): Noriko Matsueda
Style: Transcription

AutoScroll: Slow | Medium | Fast
Friendship
Bahamut Lagoon
Composed by Noriko Matsueda
Tabbed by hslesperance
6/27/12

Standard Tuning


        |-3-|
  Q  Q  Q Q Q   H    Q  Q    Q.   E +H       +H     Q  Q
|-------------|------------|---------------|--------------|
|-------5-6-8-|-5----------|---------------|--------------|
|-------------|------5-----|-5----7-(7)----|-(7)-------7--|
|----7--------|---------7--|---------------|--------------|
|-------------|------------|---------------|--------------|
|-------------|------------|---------------|--------------|


  Q  E H    E   Q  E Q  E E E   +Q.   E +H       +W
|-5--6--------|-5--6----------|-------5-(5)----|-(5)----|
|------8------|------8--5---8-|-(8)------------|--------|
|-----------7-|-----------5---|----------------|--------|
|-------------|---------------|----------------|--------|
|-------------|---------------|----------------|--------|
|-------------|---------------|----------------|--------|

        |-3-|
  Q  Q  Q Q Q   H    Q  Q    Q.   E +H       +H     Q  Q
|-------------|------------|---------------|---------------|
|-------5-6-8-|-5----------|---------------|---------------|
|-------------|------5-----|-5----7-(7)----|-(7)-------7---|
|----7--------|---------7--|---------------|---------------|
|-------------|------------|---------------|---------------|
|-------------|------------|---------------|---------------|


  Q  E H    E   Q  E Q  E E E   +Q.   E +H       +W
|-5--6--------|-5--6--------8-|-(8)---5-(5)----|-(5)----|
|------8------|------8--6-5---|----------------|--------|
|-----------7-|---------------|----------------|--------|
|-------------|---------------|----------------|--------|
|-------------|---------------|----------------|--------|
|-------------|---------------|----------------|--------|


  Q  E Q  Q  E   +E  Q  H    S S   Q.   E E E E E   +E  E E Q  Q.
|--------------|-----------------|----------------|------------------|
|-6--5---------|-----------------|----------------|------------------|
|------7-------|-----5-----------|----------5-----|------------5-----|
|------------7-|-(7)----5--------|-5--------------|-------5-7--------|
|---------5----|-------------5-8-|------8-8---8-7-|-(7)-8------------|
|--------------|-----------------|----------------|------------------|


  Q  E Q  Q  E   +E  E E Q  E E E   +Q.   Q  Q  E   +W
|---------5--5-|-(5)-8-5----------|---------------|--------*|
|-6--5---------|---------9--8-6---|-------8--6--5-|-(5)----*|
|------7-------|----------------7-|-(7)-----------|--------*|
|--------------|------------------|---------------|--------*|
|--------------|------------------|---------------|--------*|
|--------------|------------------|---------------|--------*|

W - whole
H - half
Q - quarter
E - 8th
S - 16th
+ - note tied to previous
. - note dotted

Irregular groupings are notated above the duration line
Login or Register to remove this ad.