Ads

Shiisaa Yaiibimi (Azumanga Daioh) Guitar Tab

Submitted: Apr 03, 2011 by 60NCA10

5
Average: 5 (1 vote)
Download | Listen
Game: Azumanga Daioh
Composer(s): Masaki Kurihara
Style: Arrangement, Artificial harmonics, Fingerstyle

This song is also called Is it Shiisaa?

Click here for a video example.

AutoScroll: Slow | Medium | Fast



                         AZUMANGA DAIOH
               "Shiisaa Yaiibimi (Is it Shiisaa?)"


                Original song by: Masaki Kurihara

                  Fingerstyle Arrangement by:
                        Gonçalo Martins
                        August 21st 2010






     ^                                                            
     W                    W                     W                 
E||--------------------|-------------------|--<>5----------------|
B||--------------------|-------------------|---------------------|
G||--2~----------------|--L----------------|---------------------|
D||--0-----------------|--L----------------|---------------------|
A||--------------------|-------------------|---------------------|
E||--------------------|-------------------|---------------------|


                        PM--------------------------------------------------  
  W                     Q    E  Q    E     Q    E  Q    E     Q    E  Q    E   
--L----------------||-------------------|------------------|------------------|
-------------------||-------------------|------------------|-------2--3----2--|
-------------------||*--2----0-------0--|--2----0-------0--|--2---------------|
-------------------||*----------4-------|----------4-------|------------------|
-------------------||-------------------|------------------|------------------|
-------------------||-------------------|------------------|------------------|


  PM-----------------------------------------------------------------------  
  Q    E  Q    E   3x  Q    E  Q    E     Q    E  Q    E     Q    E  Q    E   
-------------------||------------------|------------------|------------------|
-------------------||------------------|------------------|-------2--3----2--|
--2----0-------0--*||--2----0-------0--|--2----0-------0--|--2---------------|
----------4-------*||----------4-------|----------4-------|------------------|
-------------------||------------------|------------------|------------------|
-------------------||------------------|------------------|------------------|


  PM                                                                    
  Q.     Q    E     Q.     Q    E     Q.     Q    E     Q.     Q    E   
-----------------|---------2----3--|-----------------|---------2----3--|
--3-----------2--|--3--------------|--3-----------2--|--3--------------|
---------2-------|-----------------|---------2-------|-----------------|
-----------------|--0--------------|--L--------------|--0--------------|
-----------------|-----------------|-----------------|-----------------|
-----------------|-----------------|-----------------|-----------------|


  Q.     Q    E     Q.     Q    E     Q.     Q    E     Q.     Q.      
-----------------|---------2----3--|-----------------|----------------|
--3-----------2--|--3--------------|--3------2-------|--3------2------|
---------2-------|-----------------|--------------2--|----------------|
--L--------------|--0--------------|--L--------------|--0-------------|
-----------------|-----------------|-----------------|---------4------|
-----------------|-----------------|-----------------|----------------|


  Q.     Q    E     Q.     Q    E     Q.     Q    E     Q.     Q    E   
-----------------|---------2----3--|-----------------|---------2----3--|
--3-----------2--|--3--------------|--3-----------2--|--3--------------|
---------2-------|-----------------|---------2-------|-----------------|
--0--------------|--0--------------|--L--------------|--0--------------|
-----------------|-----------------|-----------------|-----------------|
-----------------|-----------------|-----------------|-----------------|


  Q.     Q    E     Q.     Q    E     Q.     Q    E     Q.     Q.      
-----------------|---------2----3--|-----------------|----------------|
--3-----------2--|--3--------------|--3------2-------|--3------2------|
---------2-------|-----------------|--------------2--|----------------|
--L--------------|--0--------------|--L--------------|--0-------------|
-----------------|-----------------|-----------------|---------4------|
-----------------|-----------------|-----------------|----------------|


  Q.     Q    E     Q.     Q    E     Q.     Q    E     Q.     Q    E   
---------2----2--|--3--------------|---------2----2--|--3--------------|
--3--------------|---------2----2--|--3--------------|---------2----2--|
-----------------|-----------------|-----------------|-----------------|
--0--------------|-----------------|--0--------------|-----------------|
-----------------|--0--------------|-----------------|--0------4-------|
-----------------|-----------------|-----------------|-----------------|


  Q.     Q    E     Q    E  Q    E     Q    E  Q    E     Q    E  Q    E   
---------2----2--|--3----2-------2--|------------------|------------------|
--3--------------|----------3-------|--3----2-------2--|------------------|
-----------------|------------------|----------2-------|--2----0-------0--|
--0--------------|------------------|------------------|----------4-------|
-----------------|------------------|------------------|------------------|
-----------------|--0---------------|--2---------------|--3---------------|


  Q.     Q    E     Q.     Q    E     Q.     Q    E     Q.     Q    E   
-----------------|---------2----3--|-----------------|---------2----3--|
--------------2--|--3--------------|--3-----------2--|--3--------------|
--2------2-------|-----------------|---------2-------|-----------------|
-----------------|--0--------------|--L--------------|--0--------------|
--0--------------|-----------------|-----------------|-----------------|
-----------------|-----------------|-----------------|-----------------|


  Q.     Q    E     Q.     Q    E     Q.     Q    E     Q.     Q.      
-----------------|---------2----3--|-----------------|----------------|
--3-----------2--|--3--------------|--3------2-------|--3------2------|
---------2-------|-----------------|--------------2--|----------------|
--L--------------|--0--------------|--L--------------|--0-------------|
-----------------|-----------------|-----------------|---------4------|
-----------------|-----------------|-----------------|----------------|


  Q.     Q    E     Q.     Q    E     Q.     Q    E     Q.     Q    E   
-----------------|---------2----3--|-----------------|---------2----3--|
--3-----------2--|--3--------------|--3-----------2--|--3--------------|
---------2-------|-----------------|---------2-------|-----------------|
--0--------------|--0--------------|--L--------------|--0--------------|
-----------------|-----------------|-----------------|-----------------|
-----------------|-----------------|-----------------|-----------------|


  Q.     Q    E     Q.     Q    E     Q.     Q    E     Q.     Q.      
-----------------|---------2----3--|-----------------|----------------|
--3-----------2--|--3--------------|--3------2-------|--3------2------|
---------2-------|-----------------|--------------2--|----------------|
--L--------------|--0--------------|--L--------------|--0-------------|
-----------------|-----------------|-----------------|---------4------|
-----------------|-----------------|-----------------|----------------|


                     PM--------------------------------------------------  
  Q.     Q.          Q    E  Q    E     Q    E  Q    E     Q    E  Q    E   
----------------||-------------------|------------------|------------------|
--3-------------||-------------------|------------------|-------2--3----2--|
----------------||*--2----0-------0--|--2----0-------0--|--2---------------|
--0-------------||*----------4-------|----------4-------|------------------|
----------------||-------------------|------------------|------------------|
----------------||-------------------|------------------|------------------|


  PM-----------------------------------------------------------------------  
  Q    E  Q    E   3x  Q    E  Q    E     Q    E  Q    E     Q    E  Q    E   
-------------------||------------------|------------------|------------------|
-------------------||------------------|------------------|-------2--3----2--|
--2----0-------0--*||--2----0-------0--|--2----0-------0--|--2---------------|
----------4-------*||----------4-------|----------4-------|------------------|
-------------------||------------------|------------------|------------------|
-------------------||------------------|------------------|------------------|


  PM                                                                    
  Q.     Q    E     Q.     Q    E     Q.     Q    E     Q.     Q    E   
-----------------|---------2----3--|-----------------|---------2----3--|
--3-----------2--|--3--------------|--3-----------2--|--3--------------|
---------2-------|-----------------|---------2-------|-----------------|
-----------------|--0--------------|--L--------------|--0--------------|
-----------------|-----------------|-----------------|-----------------|
-----------------|-----------------|-----------------|-----------------|


  Q.     Q    E     Q.     Q    E     Q.     Q    E     Q.     Q.      
-----------------|---------2----3--|-----------------|----------------|
--3-----------2--|--3--------------|--3------2-------|--3------2------|
---------2-------|-----------------|--------------2--|----------------|
--L--------------|--0--------------|--L--------------|--0-------------|
-----------------|-----------------|-----------------|---------4------|
-----------------|-----------------|-----------------|----------------|


  Q.     Q    E     Q.     Q    E     Q.     Q    E     Q.     Q    E   
-----------------|---------2----3--|-----------------|---------2----3--|
--3-----------2--|--3--------------|--3-----------2--|--3--------------|
---------2-------|-----------------|---------2-------|-----------------|
--0--------------|--0--------------|--L--------------|--0--------------|
-----------------|-----------------|-----------------|-----------------|
-----------------|-----------------|-----------------|-----------------|


  Q.     Q    E     Q.     Q    E     Q.     Q    E     Q.     Q.      
-----------------|---------2----3--|-----------------|----------------|
--3-----------2--|--3--------------|--3------2-------|--3------2------|
---------2-------|-----------------|--------------2--|----------------|
--L--------------|--0--------------|--L--------------|--0-------------|
-----------------|-----------------|-----------------|---------4------|
-----------------|-----------------|-----------------|----------------|


  Q.     Q    E     Q.     Q    E     Q.     Q    E     Q.     Q    E   
---------2----2--|--3--------------|---------2----2--|--3--------------|
--3--------------|---------2----2--|--3--------------|---------2----2--|
-----------------|-----------------|-----------------|-----------------|
--0--------------|-----------------|--0--------------|-----------------|
-----------------|--0--------------|-----------------|--0------4-------|
-----------------|-----------------|-----------------|-----------------|


  Q.     Q    E     Q    E  Q    E     Q    E  Q    E     Q    E  Q    E   
---------2----2--|--3----2-------2--|------------------|------------------|
--3--------------|----------3-------|--3----2-------2--|------------------|
-----------------|------------------|----------2-------|--2----0-------0--|
--0--------------|------------------|------------------|----------4-------|
-----------------|------------------|------------------|------------------|
-----------------|--0---------------|--2---------------|--3---------------|


  Q.     Q    E     Q.     Q    E     Q.     Q    E     Q.     Q    E   
-----------------|---------2----3--|-----------------|---------2----3--|
--------------2--|--3--------------|--3-----------2--|--3--------------|
--2------2-------|-----------------|---------2-------|-----------------|
-----------------|--0--------------|--L--------------|--0--------------|
--0--------------|-----------------|-----------------|-----------------|
-----------------|-----------------|-----------------|-----------------|


  Q.     Q    E     Q.     Q    E     Q.     Q    E     Q.     Q.      
-----------------|---------2----3--|-----------------|----------------|
--3-----------2--|--3--------------|--3------2-------|--3------2------|
---------2-------|-----------------|--------------2--|----------------|
--L--------------|--0--------------|--L--------------|--0-------------|
-----------------|-----------------|-----------------|---------4------|
-----------------|-----------------|-----------------|----------------|


  Q.     Q    E     Q.     Q    E     Q.     Q    E     Q.     Q    E   
-----------------|---------2----3--|-----------------|---------2----3--|
--3-----------2--|--3--------------|--3-----------2--|--3--------------|
---------2-------|-----------------|---------2-------|-----------------|
--0--------------|--0--------------|--L--------------|--0--------------|
-----------------|-----------------|-----------------|-----------------|
-----------------|-----------------|-----------------|-----------------|


  Q.     Q    E     Q.     Q    E     Q.     Q    E     Q.     Q.      
-----------------|---------2----3--|-----------------|----------------|
--3-----------2--|--3--------------|--3------2-------|--3------2------|
---------2-------|-----------------|--------------2--|----------------|
--L--------------|--0--------------|--L--------------|--0-------------|
-----------------|-----------------|-----------------|---------4------|
-----------------|-----------------|-----------------|----------------|


  Q.     Q.        Q.     Q.        Q.     Q.        Q.     Q.      
----------------|----------------|----------------|----------------|
--3-------------|--3------2------|--3-------------|--3------2------|
----------------|----------------|----------------|----------------|
--0-------------|--0-------------|--0-------------|--0-------------|
----------------|---------4------|----------------|---------4------|
----------------|----------------|----------------|----------------|


  H.              H.             
---------------|---------------||
--3------------|--L------------||
---------------|---------------||
--0------------|--L------------||
---------------|---------------||
---------------|---------------||




Duration Legend
---------------
W - whole
H - half
Q - quarter
E - 8th
. - note dotted


Tablature Legend
----------------
L - tied note
<> - artificial harmonic on the 8th
~ - vibrato
^ - brush up
PM - palm mute

Login or Register to remove this ad.

2 comments on Shiisaa Yaiibimi

I think you spelled Yaibiimi

I think you spelled Yaibiimi as Yaiibimi accidentally.

My mistake...

auriplane said

I think you spelled Yaibiimi as Yaiibimi accidentally.

You're right.
My mistake...