Ads

Last Wanderlust (Atelier Shallie: Alchemists of the Dusk Sea) Guitar Tab

Submitted: Dec 16, 2016 by tomorning

5
Average: 5 (4 votes)
Download | Listen
Game: Atelier Shallie: Alchemists of the Dusk Sea
Composer(s): Daisuke Achiwa, Kazuki Yanagawa, Hayato Asano, Sen
Style: Arrangement, Fingerstyle, Natural harmonics

AutoScroll: Slow | Medium | Fast
2016/10/29
                                 Last Wander-ust 

              ~ from game "シャリーのアトリエ~黄昏の海の錬金術士~" ~
                      (Atelier Shallie: Alchemists of the Dusk Sea)

Music by Sen / Artist : matryoshka / Calu
arranged by to*morning



   PM.............................................................

     E  E  Q       E  E  E.  S     E  E  E.  S     E   E   E.  S     
E||--------4----|--------6---4--|---------------|------------------||
B||--4----------|--4------------|---------------|--9------11---9---||
G||-------------|---------------|--8-----6---8--|-----------------*||
D||-----6-------|---------------|---------------|-----------------*||
A||--4----------|-----6---------|-----8---------|-----10-----------||
E||-------------|--4------------|--6------------|--8---------------||


*PM (Bottom note)

  E   E   Q       E  E  E  E     E  E  E.  S    E  E  E  E     E  E  Q     
---------------|--------------|--6-----4---3-|--4-----------|-------------|
--9------11----|-----------4--|--------------|-----------2--|--2-----4----|
---------------|--------3-----|--------------|--------3-----|-----0-------|
---------------|-----6--------|--------------|-----3--------|-------------|
-----10--------|--4-----------|-----6--------|--1-----------|--3----------|
--8------------|--------------|--4-----------|--------------|-------------|


*PM (Bottom note)

  E  E  E  E     E  E  E.  S    E  E  E  E     E  E  Q       E  E  E  E   
--------------|--6-----4---3-|--4-----------|-------------|--------------|
-----------4--|--------------|-----------2--|--2----------|-----------4--|
--5-----3-----|--------------|--------3-----|-----0--3----|--------3-----|
-----6--------|--------------|-----3--------|-------------|-----6--------|
--4-----------|-----6--------|--1-----------|--3----------|--4-----------|
--------------|--4-----------|--------------|-------------|--------------|


*PM (Bottom note)

  E  S  S E.  S    E  E  E  E     E  E  Q       E  E  E  E     E  E  E.  S  
--6-----6-4---3-|--4-----------|-------------|--------------|--6-----4---3-|
----------------|-----------2--|--2-----4----|-----------4--|--------------|
----------------|--------3-----|-----0-------|--5-----3-----|--------------|
----------------|-----3--------|-------------|-----6--------|--------------|
-----6----------|--1-----------|--3----------|--4-----------|-----6--------|
--4-------------|--------------|-------------|--------------|--4-----------|


*PM (Bottom note)...........|
                                               
  E  E  E  E     E  E  Q        E  E  E  E     E  E  E  E     E  Q    E   
--4-----------|-------------||--------2-----|-----0--2--2--|-----0-------|
-----------2--|--2----------||--------2-----|--4-----4-----|-----0----4--|
--------3-----|-----0--3----||-----------4--|--4-----------|----------4--|
-----3--------|-------------||-----4--------|--------------|-------------|
--1-----------|--3----------||--2-----------|--------------|-------------|
--------------|-------------||--------------|--4-----------|--2----------|


  E  Q    E     E  E  E  E     E  E  E  E     E  Q    E     E  Q.      
-------------|--------2-----|-----0--2--2--|-----0-------|------------||
-----2----0--|--------2-----|--4-----4-----|-----0----4--|-----2------||
-----1-------|-----------4--|--4-----------|----------4--|-----1------||
----------4--|-----4--------|--------------|-------------|------------||
-------------|--2-----------|--------------|-------------|------------||
--0----------|--------------|--4-----------|--2----------|--0---------||


    >              >     >  >     >        >     >              >            
    E  E  E  E     E  E  E  E     E  E  E  E     E  E  E  E     E  E  E  E   
|---------------|--------------|--------------|--------------|--------------|
|---------4-----|--------4--3--|--------4-----|--------------|--------4-----|
|*--3--------0--|--3--------0--|--3--------0--|--0-----3-----|--3--------0--|
|*-----1--------|-----1--------|-----5--------|-----------5--|--------------|
|---------------|--1-----------|--3-----------|-----6--------|-----6--------|
|---4-----------|--------------|--------------|--6-----------|--4-----------|


  >     >  >     >              >                >              >     >  >   
  E  E  E  E     E  E  E  E     E  E  E  E       E  E  E  E     E  E  E  E   
--------------|--------------|---------------||--------------|--------------|
--------4--3--|--6--------4--|--4-----3------||--------4-----|--------4--3--|
--3--------0--|--------3-----|-----------3--*||--3--------0--|--3--------0--|
-----1--------|-----5--------|-----1--------*||--------------|-----1--------|
--1-----------|--3-----------|--1------------||-----6--------|--1-----------|
--------------|--------------|---------------||--4-----------|--------------|


  >              >            PM
  E  E  E  E     E  E  Q        S  S  E  Q       S  S  S  S  Q     
--------------|-------------||----------------|-------------------|
--6--------4--|--4-----3----||----------------|-------------------|
--------3-----|-------------||--3-------------|-------------------|
-----5--------|-----1-------||--3-------------|-----------1-------|
--3-----------|--1----------||--------4-------|--------4----------|
--------------|-------------||-----4----------|--1--4-------------|


PM   
  S  S  E  Q       S  S  S  S  Q       S  S  S  S  S  E.   
----------------|-------------------|--------------4------|
----------------|-------------------|--4--------4---------|
----------------|-------------------|--------4------------|
----------------|-----------1-------|-----6---------------|
--------4-------|--------4----------|--4------------------|
--1--4----------|--1--4-------------|---------------------|


PM                                                                *PM (Bottom note)

  S  S  S  S  S  E.     S  S  S  S  S  E.     S S  S  S  S  E.      E  E  E  E   
--------------6------|--------------1------|-------------4------||--------------|
--4--------4---------|--4--------1---------|----------4---------||-----------4--|
---------------------|--------1------------|-------6------------||--------3-----|
--------4------------|-----3---------------|----6---------------||-----6--------|
-----6---------------|--1------------------|--3-----------------||--4-----------|
--4------------------|---------------------|--------------------||--------------|


*PM (Bottom note)
   
  E  E  E.  S    E  E  E  E     E  E  Q       E  E  E  E     E  E  E.  S  
--6-----4---3-|--4-----------|-------------|--------------|--6-----4---3-|
--------------|-----------2--|--2-----4----|-----------4--|--------------|
--------------|--------3-----|-----0-------|--5-----3-----|--------------|
--------------|-----3--------|-------------|-----6--------|--------------|
-----6--------|--1-----------|--3----------|--4-----------|-----6--------|
--4-----------|--------------|-------------|--------------|--4-----------|


*PM (Bottom note)

  E  E  E  E     E  E  E.  S     E  E  E  E     E  S  S E.  S    E  E  E  E   
--4-----------|---------------|--------------|--6-----6-4---3-|--4-----------|
-----------2--|--2------------|-----------4--|----------------|-----------2--|
--------3-----|-----0--3---0--|--------3-----|----------------|--------3-----|
-----3--------|---------------|-----6--------|----------------|-----3--------|
--1-----------|--3------------|--4-----------|-----6----------|--1-----------|
--------------|---------------|--------------|--4-------------|--------------|


*PM (Bottom note)

  E  E  Q       E  E  E  E     E  E  E.  S    E  E  E  E     E  E  Q     
-------------|--------------|--6-----4---3-|--4-----------|-------------||
--2-----4----|-----------4--|--------------|-----------2--|--2----------||
-----0-------|--5-----3-----|--------------|--------3-----|-----0--3----||
-------------|-----6--------|--------------|-----3--------|-------------||
--3----------|--4-----------|-----6--------|--1-----------|--3----------||
-------------|--------------|--4-----------|--------------|-------------||


  E  E  E  E     E  S  S  E  E     E  Q    E     E  Q    E     E  E  E  E   
--------2-----|-----0-----2--2--|-----0-------|-------------|--------2-----|
--------2-----|--4--------4-----|-----0----4--|-----2----0--|--------2-----|
-----------4--|--4----(4)-------|----------4--|-----1-------|-----------4--|
-----4--------|-----------------|-------------|----------4--|-----4--------|
--2-----------|-----------------|-------------|-------------|--2-----------|
--------------|--4--------------|--2----------|--0----------|--------------|


                                               >              >     >  >   
  E  E  E  E     E  Q    E     E  E  Q         E  E  E  E     E  E  E  E   
-----0--2--2--|-----0-------|-----2-------||---------------|--------------|
--4-----4-----|-----0----4--|-----2-------||---------4-----|--------4--3--|
--4-----------|----------4--|-------------||*--3--------0--|--3--------0--|
--------------|-------------|-------------||*-----1--------|-----1--------|
--------------|-------------|-------------||---------------|--1-----------|
--4-----------|--2----------|--0----------||---4-----------|--------------|


  >        >     >              >              >     >  >     >            
  E  E  E  E     E  E  E  E     E  E  E  E     E  E  E  E     E  E  E  E   
--------------|--------------|--------------|--------------|--------------|
--------4-----|--------3-----|--------4-----|--------4--3--|--6--------4--|
--3--------0--|--0--------3--|--3--------0--|--3--------0--|--------3-----|
-----5--------|-----1--------|-----1--------|-----1--------|-----5--------|
--3-----------|--1-----------|--------------|--1-----------|--3-----------|
--------------|--------------|--4-----------|--------------|--------------|


  >                >              >     >  >     >              >           
  E  E  E  E       E  E  E  E     E  E  E  E     E  E  E  E     E  E  Q     
---------------||--------------|--------------|--------------|-------------|
--4-----3------||--------4-----|--------4--3--|--6--------4--|--4-----3----|
-----------3--*||--3--------0--|--3--------0--|--------3-----|-------------|
-----1--------*||--------------|-----1--------|-----5--------|-----1-------|
--1------------||-----6--------|--1-----------|--3-----------|--1----------|
---------------||--4-----------|--------------|--------------|-------------|


                         *PM (Bottom note)

  H           H            E  E  E.  S    E   E  E   E      E  E   E.   S  
-----------|-----------||--7-----7---7-|--7-------------|-----------------|
-----------|-----------||--------------|-----10--9--10--|-----------------|
--3--------|-----------||--------------|----------------|--11--9--11---11-|
-----------|-----------||--------7-----|---------9------|-----------------|
-----------|-----------||-----7--------|------9---------|------9--11------|
-----------|-----------||--5-----------|--7-------------|---9-------------|


*PM (Bottom note)

  E  E   E  E     E  E  E.  S    E   E    E  E      E  E   E.   S  
------------7--|--7-----7---7-|--7--12---11--9--|-----------------|
--7--9--10-----|--------------|-----------------|-----------------|
---------------|--------------|-----------------|--11--9--11---11-|
---------9-----|--------7-----|-----------9-----|-----------------|
---------------|-----7--------|-----(9)---------|------9--11------|
--7------------|--5-----------|--7--------------|---9-------------|


*PM (Bottom note)/
                /
   E  E   Q       E  E  E.  S    E  E  E  E     E  S S E  E     E  E  E  E   
---------------|--7-----7---0-|-----------0--|---------------|--------------|
---7--9--10----|--------0-----|--------4-----|---------4-----|--------4-----|
---------------|--------6-----|--------4-----|-------4----4--|--------4-----|
----------9----|-----6--------|-----4--------|-----2---------|-----4-----4--|
---------------|--0-----------|--2-----------|--4------------|--2-----------|
---7-----------|--------------|--------------|---------------|--------------|


  E  E  E.  S    E  E  E  E     E  S  S S  S E     E  E  E  E   
--------------|--------------|---------------0--|-----------0--|
--------0---0-|--0-----------|----------0h-4----|--------4-----|
--------2-----|-----2--1--2--|------------------|--------4-----|
-----2--------|--------4-----|--4--2h-4---------|-----4--------|
--0-----------|--2-----------|--4---------------|--2-----------|
--------------|--------------|------------------|--------------|


                NH                                                 
  E  S S S S    E      E  E  E  E     E  E  E.  S    E  E   E  E   
-----------0-<12>--|--11--9--7-----|-----0--------|------------7--|
---------0---<12>--|------------7--|--7-----7---7-|--7--9--10-----|
-------6-----------|------9--8-----|--------------|---------------|
-----6-------------|------------9--|-----4--6-----|---------9-----|
--0----------------|---------------|--4-----------|---------------|
-------------------|---7-----------|--------------|--7------------|


                        NH    NH                                           
   E   E   E.   S       E     E    E   E     E  E  E  S S    E  S S E  E   
------------------|--------<>12---11---9--|-----0---------|------------0--|
--12------12---12-|--<>12-----------------|--7-----7----7-|---------4-----|
-----------9------|--------------(11)-----|-----------4---|-------4-------|
------11----------|----------------9------|-----4--6------|-----4---------|
---0--------------|-----------------------|--4------------|--2------------|
------------------|-----7-----------------|---------------|---------------|


  E  E  E.  S    E  E  E  E     E  E  E.  S    E  E  E  E     E  S S E  E   
--------------|--------------|--------------|--------------|------------0--|
--------0---0-|--0-----------|--------------|-----------0--|---------0-----|
--------2-----|-----2--1--2--|--------------|-----1--2-----|-------2-------|
-----2--------|--------4-----|--4--2--4---4-|--4-----4-----|-----2---------|
--0-----------|--2-----------|--4-----------|--2-----------|--0------------|
--------------|--------------|--------------|--------------|---------------|


                                                 *PM (Bottom note)

  E  S S E  E     E  S S E  S S    E  E   E  E     E  E  E.  S  
------------0--|------------0---|---------------|--7-----7---7-|
---------4-----|---------7----7-|-----9--10-----|--------------|
-------4-------|-------6--------|---------------|--------------|
-----4---------|-----6----------|---------9-----|--------7-----|
--2------------|--4-------------|---------------|-----7--------|
---------------|----------------|--7------------|--5-----------|


*PM (Bottom note)
 
  E   E  E   E      E  E   E.   S    E  E   E  E     E  E  E.  S  
--7-------------|-----------------|------------7--|--7-----7---7-|
-----10--9--10--|-----------------|--7--9--10-----|--------------|
----------------|--11--9--11---11-|---------------|--------------|
---------9------|-----------------|---------9-----|--------7-----|
------9---------|------9--11------|---------------|-----7--------|
--7-------------|---9-------------|--7------------|--5-----------|


*PM (Bottom note)

  E   E    E  E      E  E   E.   S    E  S S   E  E    
--7--12---11--9--|-----------------|-----------------||
-----------------|-----------------|--7--9----10-----||
-----------------|--11--9--11---11-|-----------------||
-----------9-----|-----------------|-------7---9-----||
-----(9)---------|------9--11------|-----------------||
--7--------------|---9-------------|--7--------------|| fine...


Login or Register to remove this ad.

2 comments on Last Wanderlust

*Sees new tab from

5

*Sees new tab from tomorning*

*body begins shaking*

YYYYYEEEEEEEESSSSSSSSS

Probably one of my favorite

5

Probably one of my favorite tabs & songs ever : )