Ads

Hometown Island (Atelier Ryza) Guitar Tab

Submitted: Jan 04, 2022 by guitarsvd (Last updated: Jan 05, 2022)

5
Average: 5 (3 votes)
Download | No audio :(
Game: Atelier Ryza
Style: Arrangement, Fingerstyle

Click here for a video example.

AutoScroll: Slow | Medium | Fast
                                Hometown Island                                 


                                                          Cecil Chau (GuitarSVD)
Guitarra



                    ^                                            
     Q    Q    Q    Q        S  S S S S S S  S S S  S S S S S S  
E||--7----4----0---------|--10p-7-----7-----------------7-------|
B||--5----2----1----1----|--------8-----8------8----------8-----|
G||--6----2----2----2----|----------9-----9p-7---9p-7-------7---|
D||--6----4----0----3----|----------------------------9-------9-|
A||-----------------1----|---0----------------------------------|
D||----------------------|--------------------------------------|


  ^                                                                         
  H.           E  E     E  E  E  E  E  E  E  E     E  E  E  E  E  E  E  E   
--5------------------|--0-----------0--------2--|--------------------------|
--5------------------|-----3--2--3--------1-----|--3-----2--3--------------|
--6---------------2--|-----2-----2-----2-----2--|--------4-----2--0-----2--|
---------------------|--0-----------------------|-----4--------------4-----|
--0------------------|--------------3-----------|--2-----------0-----------|
---------------------|--------------------------|--------------------------|


  E  E  E  E  E  E  E  E     E  E  E  E  Q    E  E     E  E  E  E  E  E  E  E   
--------------------0--2--|--2-----------0----2--3--|--5-----------L--------5--|
--0-----2--3--3-----------|--------------2----2-----|-----5-----5-----7--8-----|
--------2--0--------2--L--|--------------2----------|-----5-----7--6-----6-----|
-----------------0--------|--------0----------------|--------------------------|
-----2--------------------|-----2-----2--0----------|--3-----------0-----------|
--5-----------4-----------|--2----------------------|--------8-----------------|


  E  E  E  E   Q    E  E     E  E  E  E  E  E  E  E   
--7--------9--10----------|-----0--2--3--5--2--------|
-----0--------10----3--2--|--3-----0-----2-----3--2--|
--------0--L--------------|-----0-----0-----2-----2--|
--------------------------|--2-----------------2-----|
---------------9----------|--------------0-----------|
--6-----5-----------------|--------------------------|


  E  E  E  E  E   E  E  E     H        Q    Q       E  E  E  E  E  E  E  E   
---------------------------|---------------------|--0-----------0--------2--|
--3------------------0--1--|--3--------L---------|-----3--2--3--------------|
--------------0h--2--------|--2--------L----2----|-----2-----2--------0-----|
--------0------------------|--5--------4---------|--0--------------0--------|
--3--------3---------------|---------------------|--------------------------|
-----5---------------------|--0------------------|--------------5-----------|


  E  E  E  E  E  E  E  E     E  E  E  E  E  E  E  E     E  E  E  E  Q    E  E   
--------------5--3--2-----|--------------------0--2--|--------------0----2--3--|
--3-----2--3-----------3--|--0-----2--3--3-----------|--7--------8--2----2-----|
--------4-----2-----------|--------2--0--------2--L--|--------0-----2----------|
-----4--------------0-----|-----------------0--------|-----0-----0-------------|
--2-----------0-----------|-----2--------------------|--------------0----------|
--------------------------|--2-----------4-----------|--5----------------------|


  E  E  E  E  E  E  E  E     E  E  E  E   Q    E  E   
--5-----------L--2--3--5--|--7--------9--10----------|
-----5-----3--1-----------|-----7--------10----0--2--|
-----6-----4--2-----------|-----7-----9--------------|
--4-----2-----1-----------|--------------------------|
--------------------------|--7------------9----------|
--------------------------|--------8-----------------|


                                         ^          
  E  E  E  E  E  E  E  E     E  E  E  E  Q    Q     
-----0--2--3--5--2--------|------------------------|
--3-----0-----2-----3--0--|--3-----------3---------|
-----0-----0-----2-----0--|-----0--3--0--2----2----|
--2-----------------2-----|--0---------------------|
--------------0-----------|------------------------|
--------------------------|--------------0---------|


                                 ^                          
                    |--3--|                                 
  E  E  E  E  E  E  E  E  E      E  E  E  E   E  E  E   E   
-----------------------5--9--|--10-----------10------------|
--------0-----------7--------|---0--8--7--8------------10--|
--3-----------6--7-----------|---0-----0------------0------|
--------0--4--6--------------|------0------------0---------|
-----2-----------------------|-----------------------------|
--4--------------------------|---5------------5------------|


  E  E   E  E   E  E  E   E     E  E  E  E  E  E  E  E   
--------10------L--------12--|--5-----------L--0--5-----|
--7--8-----------------------|--------------2--------3--|
---------0------0-----0------|-----------2--------------|
-----0------0------0---------|--------2-----------------|
-----------------------------|-----4--------------------|
--5--------------------------|--4-----------------------|


  E  E  E  E  Q.     E      E  E  E  E   E  E  E  E   
--------5-----L---------|---------------10-----------|
--5--2--------2------3--|--10--8--7--8------------7--|
-----------2------------|---------0------------0-----|
--------2---------------|------0-----0------0--------|
-----4------------------|----------------------------|
--4---------------------|---5------------5-----------|


  E  E   E  E   E  E  E   E     E  E  E  E  E  E  E   S  S  
--------10------L--------12--|--5-----------L--------10-12-|
--7--8-----------------------|--------------2--------------|
---------0------------0------|-----------2-----2-----------|
-----0------0------0---------|--------2-----------4--------|
-----------------------------|-----4-----------------------|
--5-------------5------------|--4--------------------------|


   E  E   E   E   E   E   E   E      E  E  E  E  E  E  E  E   
--14---------17---L--14--12--14--|--10--------9--5--------0--|
------0------17---L--------------|------0--------------3-----|
---------------------------------|---------7--------6--------|
---------12----------------------|---------------4-----------|
---------------------------------|---7-----------------------|
---9---------16---L--------------|---------------------------|


  ^                                                                  
                    |--3--|                                          
  E  E  E  E  E  E  E  E  E      S  S S S S S S  S S S  S S S S S S  
--2--------------------0--2--|--10p-7-----7-----------------7-------|
--0-----------0--2--3--------|--------8-----8------8----------8-----|
--0-----0--3-----------------|----------9-----9p-7---9p-7-------7---|
-----0-----------------------|----------------------------9-------9-|
-----------------------------|---0----------------------------------|
--5--------------------------|--------------------------------------|


  H.           E  E     E  E  E  E  E  E  E  E     E  E  E  E  E  E  E  E   
--5------------L-----|--0-----------0--------2--|--------------------------|
--5------------L-----|-----3--2--3--------1-----|--3-----2--3--------------|
--6------------L--2--|-----2-----2-----2-----2--|--------4-----2--0-----2--|
---------------------|--0-----------------------|-----4--------------4-----|
--0------------------|--------------3-----------|--2-----------0-----------|
---------------------|--------------------------|--------------------------|


  E  E  E  E  E  E  E  E     E  E  E  E  Q    E  E     E  E  E  E  E  E  E  E   
--------------------0--2--|--2-----------0----2--3--|--5-----------L--------5--|
--0-----2--3--3-----------|--------------2----2-----|-----5-----5-----7--8-----|
--------2--0--------2-----|--------------2----------|-----5-----7--6-----6-----|
-----------------0--------|--------0----------------|--------------------------|
-----2--------------------|-----2-----2--0----------|--3-----------0-----------|
--5-----------4-----------|--2----------------------|--------8-----------------|


  E  E  E  E   Q    E  E     E  E  E  E  E  E  E  E   
--7--------9--10----------|-----0--2--3--5--2--------|
-----0--------10----3--2--|--3-----0-----2-----3--2--|
--------0--L--------------|-----0-----0-----2-----2--|
--------------------------|--2-----------------2-----|
---------------9----------|--------------0-----------|
--6-----5-----------------|--------------------------|


  E  E  E  E  E  E  E   E     W                  
-----------0---------------|--9----------------||
--3-----3-----7-----7--10--|--7----------------||
-----2-----------7---------|--7----------------||
---------------------------|--0----------------||
---------------------------|-------------------||
--0------------------------|-------------------||




Duration Legend
---------------
W - whole
H - half
Q - quarter
E - 8th
S - 16th
T - 32nd
X - 64th
. - note dotted
|-n-|  - n-tuplets


Tablature Legend
----------------
L - tied note
x - dead note
g - grace note
(n) - ghost note
> - accentuded note
NH - natural harmonic
AH - artificial harmonic
TH - tapped harmonic
SH - semi harmonic
PH - pitch harmonic
h - hammer on
p - pull off
b - bend
br - bendRelease
pb - preBend
pbr - preBendRelease
brb - bendReleaseBend
\n/ - tremolo bar dip
\n - tremolo bar dive
-/n - tremolo bar Release up
/n\ - tremolo bar inverted dip
/n - tremolo bar return
-\n - tremolo bar Release down
S - shift slide
s - legato slide
/ -  slide into from below or out of upwards
\ -  slide into from above or out of downwards
~ - vibrato
W - wide vibrato
tr - trill
TP - tremolo picking
T - tapping
S - slap
P - pop
< - fade in
^ - brush up
v - brush down
Login or Register to remove this ad.

1 comment on Hometown Island

Nice!

5

Nice!