A Treasured Person (Atelier Iris 3: Grand Phantasm) Guitar Tab

Submitted: Nov 10, 2009 by kenor

5
Average: 5 (1 vote)
Download | Listen
Game: Atelier Iris 3: Grand Phantasm
Composer(s): Ken Nakagawa
Style: 2 or more instruments, Arrangement, Fingerstyle, Natural harmonics

AutoScroll: Slow | Medium | Fast
A Treasured Person
~Atelier Iris 3: Grand Phantasm~
Composed by: Ken Nakagawa
Arranged by: kenor

Rhytm: 4/4 metrum, bpm = 95


Guitar I:
---------


     E  E  E     E  E  E   E  Q    E  E     Q    Q.     E  E  E     Q.      E  Q    Q     
E||-----------|--------------------------|-----------------------|------------------7----|
B||-----------|--------------------------|-----------------------|--8------10--7---------|
G||-----------|---------------7----7--9--|--7-----------------7--|-----------------------|
D||-----5--7--|--9--7--9--10-------------|-------7---------5-----|-----------------------|
A||--5--------|--------------------------|--------------5--------|-----------------------|
E||-----------|--------------------------|-----------------------|-----------------------|


    W                   E  E  E  E  Q    E  E     Q      E  E  H         
---------------------|-------------------------|------------------------|
---------------------|----------------------5--|-------7g8--7--8--------|
--7g9----------------|--5--7--5--4-------7-----|--4---------------------|
---------------------|--------------7----------|------------------------|
---------------------|-------------------------|------------------------|
---------------------|-------------------------|------------------------|


  E  E  E  E  Q    Q       Q.     E  H            E  E  E   E  Q    E  E   
------------------------|----------------------|--------------------------|
--8--5------------------|----------------------|--------------------------|
--------5--4------------|----------------------|---------------7----7--9--|
--------------7----5----|--5------7--7~--------|--9--7--9--10-------------|
------------------------|----------------------|--------------------------|
------------------------|----------------------|--------------------------|


                                                                NH        
  Q    Q.     E  E  E     Q.      E  Q    Q         H           H         
-----------------------|------------------7----|-------------<>12--------|
-----------------------|--8------10--7---------|-------------<>12--------|
--7-----------------7--|-----------------------|--7g9--------------------|
-------7---------5-----|-----------------------|-------------------------|
--------------5--------|-----------------------|-------------------------|
-----------------------|-----------------------|-------------------------|


  E  E  E  E  Q    E  E     Q      E  E  H           E  E  E  E  Q    Q     
-------------------------|------------------------|-----------5------------|
----------------------5--|-------7g8--7--8--------|--5--7--8-----7---------|
--5--7--5--4-------7-----|--4---------------------|-------------------7----|
--------------7----------|------------------------|------------------------|
-------------------------|------------------------|------------------------|
-------------------------|------------------------|------------------------|


  H.           E   E     E  E   E  E  E  E  E  E     E  E  E  E   E  E  E   E   
----------------------|--7---------7--------------|--------8--7----------------|
--8------------8--10--|--------10-----8--------7--|--8-----------10-----8--10--|
----------------------|---------------------9-----|----------------------------|
----------------------|---------------------------|----------------------------|
----------------------|---------------------------|----------------------------|
----------------------|---------------------------|----------------------------|


  E  E   E  E  E  E  E  E     E  E  E  E   E  E  E   E      E  E   E   E  E  E  E  E   
--7---------7--------------|--------8--7---------7---8--|--10------8--10--7-----3--5--|
--------10-----8--------7--|--8-----------10-----8--10--|--12-----10--12--8-----5--7--|
---------------------9-----|----------------------------|-----------------------------|
---------------------------|----------------------------|-----------------------------|
---------------------------|----------------------------|-----------------------------|
---------------------------|----------------------------|-----------------------------|


  E  E   E   E   E  E  E   E      E  E   E   E  E  E  E  E   
--7-----14--12--10-----7---8--|--10------8--10--7-----3--5--|
--8--------------------8--10--|--12-----10--12--8-----5--7--|
------------------------------|-----------------------------|
------------------------------|-----------------------------|
------------------------------|-----------------------------|
------------------------------|-----------------------------|


  E  E   E   E   E  E  E  E     Q    E  E  Q    Q       Q    E  E  Q    E  E   
--7-----14--12--10-----------|-------7--5------------|-------8--7--5----7--8--|
--8--------------------------|-------------8----7----|--5---------------------|
-----------------------4--5--|--7--------------------|------------------------|
-----------------------------|-----------------------|------------------------|
-----------------------------|-----------------------|------------------------|
-----------------------------|-----------------------|------------------------|


  |--3--|                                                                         
  S  S  S E  E  E  Q     Q       Q    E  E  Q    E  E      Q    E   E  Q    Q     
--7h-8p-7-5-------------12----|--L----8--7--5----7--8--|--10----7----------------|
-------------8--7--5----------|------------------------|-----------10--8----7----|
------------------------------|------------------------|-------------------------|
------------------------------|------------------------|-------------------------|
------------------------------|------------------------|-------------------------|
------------------------------|------------------------|-------------------------|


                             |--3--|                                                     
    Q    E  E  Q    E  E     S  S  S E  E  E    H             Q.     E   E   E   E   E   
--/12----8--7--5----7--8--|--7h-8p-7-5--------/12~--------|---L------8--10--12--14--15--|
--------------------------|-------------8--7--------------|-----------------------------|
--------------------------|-------------------------------|-----------------------------|
--------------------------|-------------------------------|-----------------------------|
--------------------------|-------------------------------|-----------------------------|
--------------------------|-------------------------------|-----------------------------|


   Q     E   E   E   E   E   E      E   E   E   E   Q      E   E   
--12----15--14--12--14--12------|---------------------------------|
----------------------------15--|--12--------------12~----15--12--|
--------------------------------|------14--12--14-----------------|
--------------------------------|---------------------------------|
--------------------------------|---------------------------------|
--------------------------------|---------------------------------|


                                                |---3---|           
   Q     E  E   Q     E  E      E   E   E   E   S   S   S E   Q     
--12----15-----------15-----|--------------------------------------|
---------------15-----------|--12--13--15--13--12h-13p-12-L--------|
----------------------------|--------------------------------14----|
----------------------------|--------------------------------------|
----------------------------|--------------------------------------|
----------------------------|--------------------------------------|


   E   E   E  E   E   E   E  E      E   E   E   E   Q     E   E   
--12--10--12---------10--12-----|--12--14--12--------------------|
-----------------12-------------|--------------15--12----15--13--|
--------------------------------|--------------------------------|
--------------------------------|--------------------------------|
--------------------------------|--------------------------------|
--------------------------------|--------------------------------|


   E  S  S E   E   E  S  S E   E      E   E   E   E   Q    S S S S  
----------------------------------|--------------------------------|
--12--L-10-L--12------------------|--10--12--10--------------------|
------------------12--L-11-L--12--|--------------12--12--------4-7-|
----------------------------------|------------------------5-7-----|
----------------------------------|--------------------------------|
----------------------------------|--------------------------------|


  E  E  E  E  E  S S E  E     Q.     S S Q    Q       E  E   E  E  E  E  E  E   
-----7--5--7---------------|-----------------------|---------------------------|
--5-----------8--L-7-L-----|--5------7-5-----------|---------------------------|
------------------------7--|-------------7----5----|------------------7--7--7--|
---------------------------|-----------------------|--9--7------7--9-----------|
---------------------------|-----------------------|--------10-----------------|
---------------------------|-----------------------|---------------------------|


  Q    Q    H           E  E  E  E  E  S S E  E     Q.     S S Q    Q     
---------------------|-----7--5--7---------------|-----------------------|
------------8--------|--5-----------8--L-7-L-----|--5------7-5-----------|
--9----7-------------|------------------------7--|-------------7----5----|
---------------------|---------------------------|-----------------------|
---------------------|---------------------------|-----------------------|
---------------------|---------------------------|-----------------------|


  E  E   E  E  E  E  E  E     Q    Q    H           E  E  E   E  Q    E  E   
---------------------------|---------------------|--------------------------|
---------------------------|------------8--------|--------------------------|
------------------7--7--7--|--9----7-------------|---------------7----7--9--|
--9--7------7--9-----------|---------------------|--9--7--9--10-------------|
--------10-----------------|---------------------|--------------------------|
---------------------------|---------------------|--------------------------|


                                                                NH        
  Q    Q.     E  E  E     Q.      E  Q    Q         H           H         
-----------------------|------------------7----|-------------<>12--------|
-----------------------|--8------10--7---------|-------------<>12--------|
--7-----------------7--|-----------------------|--7g9--------------------|
-------7---------5-----|-----------------------|-------------------------|
--------------5--------|-----------------------|-------------------------|
-----------------------|-----------------------|-------------------------|


  E  E  E  E  Q    E  E     Q      E  E  H           E  E  E  E  Q    Q     
-------------------------|------------------------|-----------5------------|
----------------------5--|-------7g8--7--8--------|--5--7--8-----7---------|
--5--7--5--4-------7-----|--4---------------------|-------------------7----|
--------------7----------|------------------------|------------------------|
-------------------------|------------------------|------------------------|
-------------------------|------------------------|------------------------|


    W                   W                   W                   W                 
---------------------|-------------------|-------------------|-------------------|
---------------------|-------------------|-------------------|-------------------|
--/12----------------|-------------------|-------------------|-------------------|
---------------------|-------------------|-------------------|-------------------|
---------------------|-------------------|-------------------|-------------------|
---------------------|-------------------|-------------------|-------------------|


  W                  
-------------------||
-------------------||
-------------------||
-------------------||
-------------------||
-------------------||




Guitar II:
----------


                                 ^                   ^          
     Q.        E  E  E  E  E  E  Q       E  E  E  E  Q    Q     
E||---------|--------------------3----|-----------0--2---------|
B||---------|-----------3--0-----3----|--------3-----3---------|
G||---------|--------2--------0-------|-----2--------2---------|
D||---------|-----0-------------------|--0----------------0----|
A||---------|-------------------------|------------------------|
E||---------|--3----------------------|------------------------|


                                         ^                              ^     
  E  E  E  E  E  E  E  E     E  E  E  E  H           E  E  E  E   E  E  Q     
--------------------2-----|-----------------------|---------------------0----|
-----------------0-----0--|-----------------------|---------------------3----|
-----------0--------------|--------------0--------|---------------------2----|
--------4-----0-----------|--------2--4--2--------|-----------2s--4----------|
-----2--------------------|--3-----------3--------|--3-----3---------0-------|
--0-----------------------|-----3--------3--------|-----3--------------------|


                                                ^                   ^          
  E  E  E  E  E  E  E  E     E  E  E  E   E  E  Q       E  E  E  E  Q    Q     
--------------------------|--------------------------|------------------------|
--------------------------|---------------------5----|-----------3------------|
-----------0-----------0--|---------------------5----|--------2-----2---------|
-----0--------------4-----|-----------2s--4-----5----|-----4--------4---------|
--------2--------2--------|--3-----3---------0-------|--5-----------5---------|
--3-----------0-----------|-----3--------------------|-------------------2----|


                    ^                   ^                                      
  E  E  E  E  E  E  Q       E  E  E  E  Q    E  E     E  E  E  E  E  E  E  E   
--------------------3----|-------------------3--2--|--0-----------------2-----|
-----------3--0-----3----|--------1--0-------------|--------------3-----------|
--------2--------0-------|-----2--------2----------|-----------0-----4-----4--|
-----0-------------------|--0-----------0----------|--------4-----0-----------|
-------------------------|-------------------------|-----2--------------------|
--3----------------------|--------------2----------|--0-----------------------|


              ^                             ^                                
  E  E  E  E  H           E  E  E  E  E  E  Q       E  E  E  E  E  E  E  E   
-----------------------|-----------0--2-----0----|--------------0-----------|
-----------------------|--------1-----------3----|--3-----0-----------------|
--------------0--------|-----0-----------2--2----|-----------2-----------0--|
--------2--4--2--------|--------------------0----|--------------------4-----|
--3-----------3--------|--3----------------------|-----2-----------2--------|
-----3--------3--------|-------------------------|--3-----------0-----------|


        ^          ^       ^                                                
  E  E  Q    E  E  Q       E  E  E  E  H           E  E  E  E  E  E  E  E   
--------0----------2----|-----------------------|--------3-----------3-----|
--------1----------3----|-----------0-----------|--------3-----------5-----|
-----0----------2-------|--0-----2-----0--------|-----0-----------4--------|
-------------0----------|--0--------------------|--------------------------|
--3---------------------|-----2-----------------|--------------------------|
------------------------|--3--------------------|--3--------3--0--------0--|


  E  E  E  E  E  E  E  E     E  E  E  E  E  E  E  E     E  E  E  E  E  E  E  E   
--------3-----------3--2--|--------3-----------3-----|--------3-----------3--2--|
--------1-----------3-----|--------3-----------5-----|--------1-----------3-----|
-----0-----------2--------|-----0-----------4--------|-----0-----------2--------|
--------------0-----------|--------------------------|--------------0-----------|
--3--------3--------------|--------------------------|--3--------3--------------|
--------------------------|--3--------2--0--------0--|--------------------------|


  E  E  E  E  E  E  E  E     E  E  E   E   E  E  E  E     E  E  E  E  E  E  E  E   
--------------------------|--------8-------------------|--------------------------|
--------0-----------0-----|--------8--12--10-----8--7--|--------0-----------0-----|
--------0-----------0-----|-----9-------------7--------|--------0-----------0-----|
-----0-----------2--------|----------------0-----0-----|-----0-----------2--------|
--------------------------|----------------------------|--------------------------|
--3--------2--0--------0--|--8-------------------------|--3--------2--0--------0--|


  E  E  E   E   E  E  E  E     E  E  E  E  E  E  E  E     E  E  E  E  E  E  E  E   
--------8-------------------|--------------------------|--------------------------|
--------8--12--10-----------|--0--------0--------------|--------1--0--------------|
-----9-------------7--0--2--|--------2-----0-----------|--0-----------2-----0--2--|
----------------0-----0-----|-----0--------------2--4--|-----2--------0-----0-----|
----------------------------|-----------------2--------|--3--------------0--------|
--8-------------------------|--3-----------0-----------|--------------------------|


  E  E  E  E  E  E  E  E     E  E  E  E  E  E  E  E     E  E  E  E  E  E  E  E   
--------------------------|--------------------------|--------------------------|
--0--------0--------------|--------1--0--------0--1--|--3-----1--3--0-----------|
--------2-----0-----------|--0-----------2-----0--2--|--4-----2--4--0-----0--2--|
-----0--------------2--4--|-----2--------0-----0-----|-----0--------------2--4--|
-----------------2--------|--3--------------0--------|-----------------2--------|
--3-----------0-----------|--------------------------|--3-----------0-----------|


                                                                      ^           
  E  E  E  E  E  E  E  E     E  E  E  E  E  E  E  E     E  E  E   E   Q    E  E   
--------2--0--------------|--------------------------|--------8------------------|
--0-----1--0--3-----0--1--|--3-----1--3--0-----------|--8--------12--10----------|
--0-----------2-----0--2--|--4-----2--4--0-----0--2--|-----9----------7----------|
-----2--------0-----------|-----0--------------------|----------------0-------0--|
--3--------------0--------|-----------------2--------|---------------------------|
--------------------------|--3-----------0-----------|--8------------------2-----|


  E  E  E  E  E  E  E  E     E  E  E  E  E  E  E  E     E  E  E  E  E  E  E  E   
-----------3-----------3--|-----0-----2--------------|-----------3-----------3--|
-----5-----5-----5-----5--|-----0-----3--0-----------|-----5-----5-----5-----5--|
-----4-----------4--0-----|--------------0-----0-----|-----4-----------4--0-----|
--------5-----0-----------|--------0--------0-----4--|--------5-----0-----------|
--------------------------|--3-----------------------|--------------------------|
--0-----------------------|--------------3-----------|--0-----------------------|


  E  E  E  E  E  E  E  E     E  E  E  E  E  E  E  E     E  E  E  E  E  E  E  E   
-----0-----2--------------|-----------3-----------3--|-----0-----2--------------|
-----0-----3--0-----------|-----5-----5-----5-----5--|-----0-----3--0-----------|
--------------0-----0-----|-----4-----------4--0-----|--------------0-----0-----|
--------0--------0-----4--|--------5-----0-----------|--------0--------0-----4--|
--3-----------------------|--------------------------|--3-----------------------|
--------------3-----------|--0-----------------------|--------------3-----------|


  E  E  E  E  E  E  E  E     E  E  E  E  E  E  E  E     E  E  E  E  E  E  E  E   
-----------3-----------3--|-----0-----2--------------|--------2--3--------2--3--|
-----5-----5-----5-----5--|-----0-----3--0-----------|--------0-----------3-----|
-----4-----------4--0-----|--------------0-----0-----|-----0-----------2--------|
--------5-----0-----------|--------0--------0-----4--|--2-----------0-----------|
--------------------------|--3-----------------------|--------------------------|
--0-----------------------|--------------3-----------|--------------------------|


  E  E  E  E  E  E  E  E     E  E  E  E  E  E  E  E     E  E  E  E  E  E  E  E   
--0-----2-----------------|--------2--3--------2--3--|--0-----2-----3-----------|
--------------3-----------|--------0-----------3-----|-----------------------0--|
-----0-----2--------0-----|-----0-----------2--------|-----0-----2--------0-----|
--------0--------0-----4--|--2-----------0-----------|--------0--------0--------|
--3-----------------------|--------------------------|--3-----------------------|
--------------3-----------|--------------------------|--------------3-----------|


  E  E  E  E  E  E  E  E     E  E  E  E  E  E  E  E     E  E  E  E  E  E  E  E   
--------2--3--------2--3--|--0-----2-----------------|--------2--3--------2--3--|
--------0-----------3-----|--------------3-----------|--------0-----------3-----|
-----0-----------2--------|-----0-----2--------0-----|-----0-----------2--------|
--2-----------0-----------|--------0--------0-----4--|--2-----------0-----------|
--------------------------|--3-----------------------|--------------------------|
--------------------------|--------------3-----------|--------------------------|


                                              ^                   ^          
  E  E  E  E  E  E  Q       E  E  E  E  E  E  Q       E  E  E  E  Q    Q     
--0-----2-----3----------|--------------------3----|-----------0--2---------|
-------------------------|-----------3--0-----3----|--------3-----3---------|
-----0-----2--------0----|--------2--------0-------|-----2--------2---------|
--------0--------0-------|-----0-------------------|--0----------------0----|
--3----------------------|-------------------------|------------------------|
--------------3----------|--3----------------------|------------------------|


                                         ^                              ^     
  E  E  E  E  E  E  E  E     E  E  E  E  H           E  E  E  E   E  E  Q     
--------------------2-----|-----------------------|---------------------0----|
-----------------0-----0--|-----------------------|---------------------3----|
-----------0--------------|--------------0--------|---------------------2----|
--------4-----0-----------|--------2--4--2--------|-----------2s--4----------|
-----2--------------------|--3-----------3--------|--3-----3---------0-------|
--0-----------------------|-----3--------3--------|-----3--------------------|


                                   ^          ^       ^                     
  E  E  E  E  E  E  E  E     E  E  Q    E  E  Q       E  E  E  E  H         
--------------------------|--------0----------2----|-----------------------|
--------------------------|--------1----------3----|-----------0-----------|
-----------0-----------0--|-----0----------2-------|--0-----2-----0--------|
-----0--------------4-----|-------------0----------|--0--------------------|
--------2--------2--------|--3---------------------|-----2-----------------|
--3-----------0-----------|------------------------|--3--------------------|


  E  E  E  E  E  E  E  E     E  E  E  E  E  E  E  E     E  E  E  E  E  E  E  E   
--------------3-----0-----|--------------3-----0-----|-----------------5--------|
-----------3-----3-----3--|-----------3-----3-----3--|-----------7--8-----8--7--|
--------0-----------------|--------0-----------------|--------7-----------------|
-----0--------------------|-----0--------------------|-----7--------------------|
--------------------------|--------------------------|--5-----------------------|
--3-----------------------|--3-----------------------|--------------------------|


  ^                  
  W                  
--3----------------||
--3----------------||
--4----------------||
-------------------||
-------------------||
--3----------------||




Legend:
-------

W - whole
H - half
Q - quarter
E - 8th
S - 16th
. - note dotted
|-n-|  - n-tuplets
L - tied note
g - grace note
NH - natural harmonic
h - hammer on
p - pull off
s - legato slide
/ -  slide into from below
~ - vibrato
^ - brush up
Login or Register to remove this ad.

1 comment on A Treasured Person

Fun to play :)

5

Fun to play :)