Ads

Flower Offering (Atelier Ayesha: The Alchemist of Dusk) Guitar Tab

Submitted: Nov 10, 2013 by tomorning (Last updated: Nov 17, 2013)

4.8
Average: 4.8 (5 votes)
Download | Listen
Game: Atelier Ayesha: The Alchemist of Dusk
Composer(s): Yu Shimoda, Daisuke Achiwa, Kazuki Yanagawa
Style: Arrangement, Fingerstyle

AutoScroll: Slow | Medium | Fast
                                        Flower Offering 
                                 ~ from game "Atelier Ayesha" ~


Music by Kazuki Yanagawa / 柳川和樹
Arranged by to*morning

Standard Tuning

Q=158

 4/4 (**integrate 4/4, this tab)


||-------10-8-7-----7-|---------------|---------------|-10-----0---------|
||o-8-10---------10---|-8--7-8--------|--------5--7-8-|----8-7---3-1-0---|
||--------------------|--------7------|-4-5-7---------|------------------|
||--------------------|-0---------5-7-|-----------0---|--------------1---|
||o-7-----------------|--------3------|---------------|------0-----------|
||--------------------|---------------|---------------|------------------|



|--------------|-------------|-----------|------------------|
|--------------|-------3-----|-1--0------|------------------|
|-2--0----0----|-2--0--------|-----------|-----------7-9-11-|
|----2--4---0--|----------0--|-----------|--------10--------|
|-----------2--|----3--------|-----------|------------------|
|--------------|-------------|----3------|------------------|



|------10-8-7-----7-|---------------|---------------|-10-----0--------|
|-8-10---------10---|-8--7-8--------|--------5--7-8-|----8-7---3-1-0--|
|-------------------|--------7------|-4-5-7---------|-----------------|
|-------------------|-0---------5-7-|-----------0---|--------------1--|
|-7-----------------|--------3------|---------------|------0----------|
|-------------------|---------------|---------------|-----------------|



|--------------|-------------|--------------|-------1-----|
|--------------|-------3-----|-1------------|-------------|
|-2--0----0----|-2--0--------|----3--2-3----|-5--3--------|
|----2--4---0--|----------0--|----5------3--|----1-----3--|
|-----------2--|----3--------|-----------5--|-------------|
|--------------|-------------|--------------|-------------|


                                            \-1.------

|--------------|-0--2--0-2----|-5-----8-----|-6--5----|
|-4--3--2-3----|-----------3--|----6--------|---------|
|----3------2--|----0------2--|----3-----5--|---------|
|-----------3--|--------------|-------------|----3----|
|--------------|--------------|-------------|-3-------|
|--------------|--------------|-------------|---------|



|----------6-5-||-6----------1--|-3-5-6-8---|-6-5-6----------|--------1----|
|--------------||----6-4-3-4----|-----------|--------6-4-3-4-|-6-3-1-------|
|--------------||---------------|---0-------|------------3---|-----------2-|
|--------------||---------------|-----3-----|-----3----------|-----1-----3-|
|--------------||-6------1------|-3-----6---|----------------|-------------|
|--------------||---------------|-----------|----------------|-------------|



|-------------|------------|------------|-----------||
|----1--------|-3-------3--|-4-------6--|-----------||
|-3--------0--|------------|------------|-3----2----||
|-5-----3-----|-2----1-----|-3----------|-3---------||
|-------------|------------|-5----3-----|-----------||
|-------------|------------|------------|-----------||



|------10-8-7-----7-|---------------|---------------|-10-----0--------|
|-8-10---------10---|-8--7-8--------|--------5--7-8-|----8-7---3-1-0--|
|-------------------|--------7------|-4-5-7---------|-----------------|
|-------------------|-0---------5-7-|-----------0---|--------------1--|
|-7-----------------|--------3------|---------------|------0----------|
|-------------------|---------------|---------------|-----------------|


                                          lento.fermete.
|--------------|-------------|-----------|-------------||
|--------------|-------3-----|-1--0------|------0-----o||
|-2--0----0----|-2--0--------|-----------|-2----0------||
|----2--4---0--|----------0--|-----------|-1----2------||
|-----------2--|----3--------|-----------|------------o||
|--------------|-------------|----3------|-------------||



\-2.-------
             fermete...
|-6--5-----|------------*|
|----------|------------*|
|----------|------------*|
|----3-----|------------*|
|-3--------|------------*|
|----------|------------*|fine.
Login or Register to remove this ad.