Game Over Theme (Astaroth) Guitar Tab

Submitted: Dec 21, 2009 by diralark (Last updated: Feb 06, 2010)

5
Average: 5 (4 votes)
Download | Listen
Game: Astaroth
Composer(s): Jochen Hippel
Style: Arrangement, Fingerstyle

AutoScroll: Slow | Medium | Fast
             ASTAROTH - Game Over Screen                           


Track 1-2
      E  E  E  E  E  E  E  E     E  E  E  E  E  E  E   E   
E||---------------------------|--0------------------------|
B||---------2--------3--------|-----------3--------2p--0--|
G||*-----2--------2--------2--|--------2--------2---------|
D||*--2--------2--------2-----|-----2--------2------------|
A||---------------------------|---------------------------|
E||---------------------------|---------------------------|


  E  E  E  E  E  E  E  E     E  E  E  E  E  E  E   E   
--------------------------|---------------------------|
--------2--------0--------|--2--------3--------2p--0--|
-----2--------2--------2--|--------2--------2---------|
--2--------2--------2-----|-----2--------2------------|
--------------------------|---------------------------|
--------------------------|---------------------------|


  E  E  E  E  E  E  E  E     E  E  E  E  E  E  E   E   
--------------------------|---------------------------|
--------------------------|---------------------------|
--------2--------4--------|--2--------4---------------|
-----4--------4--------4--|--------4--------4--7p--6--|
--4--------4-----4--4-----|-----4--------4-----4------|
-----L--------------------|--------L------------------|


  E  E  E  E  E  E  E  E     E  E  E  E  E  E  E   E   
--------------------------|---------------------------|
--------------------------|---------------------------|
--------2--------4--------|--2------------------------|
-----4--------4--------4--|--------4--6-----4--4p--2--|
--4--------4-----4--4-----|-----4--------4-----4------|
-----L--------------------|-----------L---------------|


  E  E  E  E  E  E  E  E     E  E  E  E  E  E  E   E   
--------------------------|---------------------------|
--------------------------|---------------------------|
-----------------1--------|--2--------1--------2p--1--|
-----0--4-----0--------0--|--------0--------0---------|
--0--------0--------0-----|-----0--------0------------|
--------------------------|---------------------------|


  E  E  E  E  E  E  E  E     E  E  E  E  E  E  E   E   
--------------------------|---------------------------|
--------------------------|-----------0---------------|
-----------------1--------|--2-----------------2p--1--|
-----0--4-----0--------0--|--------0--------0---------|
--0--------0--------0-----|-----0--------0------------|
--------------------------|---------------------------|


  E  E  E  E  E  E  E  E     E  E  E  E  E  E  E  E   
--------------------------|--------------------------|
--------------------------|--0-----------------------|
--------1--------2--------|-----------2--------1-----|
-----2--------2--------2--|--------2--------2-----2--|
--2--------2--------2-----|-----2--------2-----------|
--0-----------------------|--0-----------------------|


  E  E  E  E  E  E  E  E     E  E  E  E  E  E  E  E   
--------------------------|-----------0--------0-----|
--------0--------2--------|--3--------------------3--|
--------------------------|--------------------------|
-----2--------2--------2--|--------2--------2--------|
--2--------2--------2-----|-----2--------2-----------|
--0-----------------------|--0-----------------------|


  E  E  E  E  E  E  E  E     E  E  E  E  E  E  E   E   
--------------------------|--0------------------------|
--------2--------3--------|-----------3--------2p--0--|
-----2--------2--------2--|--------2--------2---------|
--2--------2-----2--2-----|-----2--------2-----2------|
--0-----------------------|--0------------------------|
--------------------------|---------------------------|


  E  E  E  E  E  E  E  E     E  E  E  E  E  E  E   E   
--------------------------|---------------------------|
--------2--------0--------|--2--------3--------2p--0--|
-----2--------2--------2--|--------2--------2---------|
--2--------2-----2--2-----|-----2--------2-----2------|
--0-----------------------|--0------------------------|
--------------------------|---------------------------|


  E  E  E  E  E  E  E  E     E  E  E  E  E  E  E   E   
--------------------------|---------------------------|
--------------------------|---------------------------|
--------2--------4--------|--2--------4---------------|
-----4--------4--------4--|--------4--------4--7p--6--|
--4--------4-----4--4-----|-----4--------4-----4------|
--2-----------------------|--2------------------------|


  E  E  E  E  E  E  E  E     E  E  E  E  E  E  E   E   
--------------------------|---------------------------|
--------------------------|---------------------------|
--------2--------4--------|--2------------------------|
-----4--------4--------4--|--------4--6-----4--4p--2--|
--4--------4-----4--4-----|-----4--------4-----4------|
--2-----------------------|--2------------------------|


  E  E  E  E  E  E  E  E     E  E  E  E  E  E  E   E   
--------------------------|---------------------------|
--------------------------|---------------------------|
--------------------------|---------------------------|
-----0--4-----0--6-----0--|--7-----0--6-----0--7p--6--|
--0--------0-----0--0-----|-----0--------0-----0------|
--5-----------------------|--5------------------------|


  E  E  E  E  E  E  E  E     E  E  E  E  E  E  E   E   
--------------------------|---------------------------|
--------------------------|-----------0---------------|
--------------------------|---------------------------|
-----0--4-----0--6-----0--|--7-----4--------0--7p--6--|
--0--------0-----0--0-----|-----0--------0-----0------|
--5--L--------------------|--5------------------------|


  E  E  E  E  E  E  E  E     E  E  E  E  E  E  E  E   
--------------------------|--------------------------|
--------------------------|--0-----------------------|
--------1--------2--------|-----------2--------1-----|
-----2--------2--------2--|--------2--------2-----2--|
--2--------2-----2--2-----|-----2--------2-----2-----|
--0-----------------------|--0-----------------------|


  E  E  E  E  E  E  E  E     E  E  E  E  E  E  E  E   
--------------------------|-----------0--------0-----|
--------0--------2--------|--3--------------------3--|
--------------------------|--------------------------|
-----2--------2--------2--|--------2--------2--------|
--2--------2-----2--2-----|-----2--------2-----2-----|
--0-----------------------|--0-----------------------|


  E  E  E  E  E  E  E  E     E  E  E  E  E  E  E  E   
--------0--------1--------|--3--------1--------0-----|
-----1--------1--------1--|--------1--------1-----3--|
--0--------0-----0--0-----|-----0--------0-----0-----|
--------------------------|--------------------------|
--3-----------------------|--3-----------------------|
--------------------------|--------------------------|


  E  E  E  E  E  E  E  E     E  E  E  E  E  E  E  E   
--------0-----------------|--0--------1--------0-----|
-----1--------1--3-----1--|--------1--------1-----3--|
--0--------0-----0--0-----|-----0--------0-----0-----|
--------------------------|--------------------------|
--3-----------------------|--3-----------------------|
--------------------------|--------------------------|


  E  E  E  E  E  E  E  E     E  E  E  E  E  E  E  E   
--------------------------|--------------------------|
--------1--------3--------|--1--------3--------1--0--|
-----2--------2--------2--|--------2--------2--------|
--2--------2-----2--2-----|-----2--------2-----2-----|
--0-----------------------|--0-----------------------|
--------------------------|--------------------------|


  E  E  E  E  E  E  E  E     E  E  E  E  E  E  E  E   
--------------------------|--------------------------|
--------1--------3--------|--1--------0--------------|
-----2--------2--------2--|--------2--------2--2--0--|
--2--------2-----2--2-----|-----2--------2-----2-----|
--0-----------------------|--0-----------------------|
--------------------------|--------------------------|


  E  E  E  E  E  E  E  E     E  E  E  E  E  E  E   E   
--------------------------|---------------------------|
-----------------0--------|--1--------0--------1p--0--|
--------2-----------------|---------------------------|
-----3--------3--------3--|--------3--------3--3------|
--3--------3-----3--3-----|-----3--------3------------|
--1-----------------------|--1------------------------|


  E  E  E  E  E  E  E  E     E  E  E  E  E  E  E  E   
--------------------------|--------------------------|
-----------------0--------|--1--------3--------1-----|
--------2-----------------|-----------------------0--|
-----3--------3--------3--|--------3--------3--3-----|
--3--------3-----3--3-----|-----3--------3-----------|
--1-----------------------|--1-----------------------|


  E  E  E  E  E  E  E  E     E  E  E  E  E  E  E  E   
--------------------------|--------------------------|
--------0--------1--------|--3--------1--------0-----|
-----0--------0--------0--|--------0--------0-----0--|
--0--------0-----0--0-----|-----0--------0-----0-----|
--------------------------|--------------------------|
--3-----------------------|--3-----------------------|


  E  E  E  E  E  E  E  E     E  E  E  E  E  E  E   E   
-----------------0--------|--1--------3--------3p--1--|
--------3-----------------|---------------------------|
-----0--------0--------0--|--------0--------0---------|
--0--------0-----0--0-----|-----0--------0-----0------|
--------------------------|---------------------------|
--3-----------------------|--3------------------------|


  E  E  E  E  E  E  E  E     E  E  E  E  E  E  E  E   
--------0--------1--------|--3--------1--------0-----|
-----1--------1--------1--|--------1--------1-----3--|
--0--------0-----0--0-----|-----0--------0-----0-----|
--------------------------|--------------------------|
--3-----------------------|--3-----------------------|
--------------------------|--------------------------|


  E  E  E  E  E  E  E  E     E  E  E  E  E  E  E  E   
--------0-----------------|--0--------1--------0-----|
-----1--------1--3-----1--|--------1--------1-----3--|
--0--------0-----0--0-----|-----0--------0-----0-----|
--------------------------|--------------------------|
--3-----------------------|--3-----------------------|
--------------------------|--------------------------|


  E  E  E  E  E  E  E  E     E  E  E  E  E  E  E   E   
--------------------------|---------------------------|
--------1--------3--------|--1--------3--------1p--0--|
-----2--------2--------2--|--------2--------2---------|
--2--------2-----2--2-----|-----2--------2-----2------|
--0-----------------------|--0------------------------|
--------------------------|---------------------------|


  E  E  E  E  E  E  E  E     E  E  E  E  E  E  E   E   
--------------------------|---------------------------|
--------1--------3--------|--1--------0---------------|
-----2--------2--------2--|--------2--------2--2p--0--|
--2--------2-----2--2-----|-----2--------2------------|
--0-----------------------|--0-----------------0------|
--------------------------|---------------------------|


  E  E  E  E  E  E  E  E     E  E  E  E  E  E  E   E   
--------------------------|---------------------------|
-----------------0--------|--1--------0--------1p--0--|
--------2-----------------|---------------------------|
-----3--------3--------3--|--------3--------3---------|
--3--------3-----3--3-----|-----3--------3-----3------|
--1-----------------------|--1-----L------------------|


  E  E  E  E  E  E  E  E     E  E  E  E  E  E  E   E   
--------------------------|---------------------------|
-----------------0--------|--1--------3--------1p--0--|
--------2-----------------|---------------------------|
-----3--------3--------3--|--------3--------3--0------|
--3--------3-----3--3-----|-----3--------3------------|
--1-----------------------|--1------------------------|


  E  E  E  E  E  E  E  E     E  E  E  E  E  E  E  E   
--------------------------|--------------------------|
--------------------------|--0-----------------------|
--------1--------2--------|-----------2--------1-----|
-----2--------2--------2--|--------2--------2-----2--|
--2--------2-----2--2-----|-----2--------2-----2-----|
--0-----------------------|--0-----------------------|


  E  E  E  E  E  E  E  E     E  E  E  E  E  E  E  E     
--------------------------|-----------0--------0------||
--------0--------2--------|--3--------------------3---||
--------------------------|--------------------------*||
-----2--------2--------2--|--------2--------2--2-----*||
--2--------2--------2-----|-----2--------2------------||
--0--------------0--------|--0------------------------||




Duration Legend
---------------
W - whole
H - half
Q - quarter
E - 8th
S - 16th
T - 32nd
X - 64th
. - note dotted
|-n-|  - n-tuplets
Login or Register to remove this ad.

4 comments on Game Over Theme

Great work diralark! o-o The

5

Great work diralark! o-o The song is fun to play and strangely one of the most uplifting game over songs I've heard in a game, lol.

Thank u TheDophine, how

Thank u TheDophine, how generous for my first comment recieved from gametabs.net users (^^). Indeed this soundtrack is nice, i like too a nice remix made by Groovykid : http://xreviews.free.fr/astaroth.mp3

Beautiful work!

5

Kinda fun to play and a great fingering exercise.
Awesome game over theme and awesome tabbing! Congrats!

Thanks kurebisubarudo. & U

Thanks kurebisubarudo. & U can now hear the original rendering to Youtube,

http://www.youtube.com/watch?v=e0yrkfjX1t0

It Reminds me 1989, How fantastic it was to hear such beauty on an simple Atari ST c: