Phoibe the Orphan (Assassins Creed: Odyssey) Guitar Tab

Submitted: Apr 24, 2019 by ESCtheGuitar (Last updated: May 15, 2019)

0
Download | Listen
Game: Assassins Creed: Odyssey
Style: Arrangement, Fingerstyle, Natural harmonics, Percussion

Click here for a video example.

AutoScroll: Slow | Medium | Fast
ASSASSINS CREED: ODYSSEY - PHOIBE THE ORPHAN
Tabbed by: ESCtheGuitar


TUNING: C G C G C D#

CAPO 2nd FRET



D#|---------------------(4)---------(4)---------(4)-----------------(4)---------(4)--------------
C |------------------------------0-------------------------------------------0-------------------
G |--0---0---0---0---2-------0-----------0---2-------0-------0---2-------0-----------0---3-------
C |------------------------------------------------------5---------------------------------------
G |----------------------------------------------------------------------------------------------
C |----------------------------------------------------------------------------------------------


D#|-----------------------(4)---------(4)---------(4)--------------------------------------------
C |--------------------------------0---------------------------0-----------0---------------------
G |----------------0---2-------0-----------0---2-------0-----------3---2-------3---2---0---2---0-
C |--------------------------------------------------------5-------------------------------------
G |--(h12)--(h12)--------------------------------------------------------------------------------
C |----------------------------------------------------------------------------------------------


D#|---------------------4---2---4-------------------------4---2---4-----------------------------
C |---------------------0-----------0---------------------0-----------2-------------------------
G |---------------(0)---0-----------0---------------------0-----------0-------------------------
C |---0---3---5---------0---------------------------------0-------------------------------------
G |---------------------------------------------------------------------------------------------
C |-------------------------------------X--X----X--X--X-------------------X--X----X--X--X-------


D#|---5---4---7----------------------------------5---4---5---2-----------------------------------
C |-------------------0--------------------------0-------------------0---------------------------
G |----------------------------------------------0---------------0-------------------------------
C |-----------0---3------------------------------0-----------0-----------------------------------
G |-----------------------X----X--X----X--X------------------------------X----X--X----X--X--X----
C |-----------------------X----X--X----X--X------------------------------X----X--X----X--X--X----


D#|----------------------------------------------------------------------------------------------
C |----------------------------------------------------------------------------------------------
G |---0----0--0----0--0--------------------------------------------------------------------------
C |----------------------------------------------------------------------------------------------
G |----------------------------------------------------------------------------------------------
C |----------------------------------------------------------------------------------------------

Login or Register to remove this ad.