Totsuzen No Wakare (Asatte no Hōkō) Guitar Tab

Submitted: Nov 06, 2010 by diralark (Last updated: Nov 06, 2010)

5
Average: 5 (5 votes)
Download | Listen
Game: Asatte no Hōkō
Composer(s): Shinkichi Mitsumune
Style: Arrangement, Fingerstyle, Transcription

AutoScroll: Slow | Medium | Fast
                 Totsuzen No Wakare      [ from Asatte no Hoko ] (anime)

Music by Shinkichi Mitsumune >> transcribed for piano by Sperion >> Tab by Diralark

Guitar (Capo 2), let ring throughout, tempo:84

      H        H           H        H              E  E  E  E  E  E  E  E   
E||---------------------|---------------------||---------------------------|
B||------------0--------|--1--------3---------||---------------0--------0--|
G||*--2-----------------|-----------0--------*||*--2--------2--------------|
D||*--2--------2--------|--3-----------------*||*-----2--2-----------2-----|
A||---0-----------------|---------------------||---0--------------2--------|
E||------------0--------|--1--------3---------||---------------0-----------|


  E  E  E  E  E  E  E  E        E  E  E  E  E  E  E  E     E  E  E  E  E  E  E  E     
---------------------------||---------------------------|---------------------------||
--1--------1--3--------3---||---------------------------|-----------------------0---||
--------------------0-----*||*--2--2--2--2--2--0--0--0--|--0--2--2--------0--2-----*||
--------3--------0--------*||*-----2--------------------|-----------2--2--0--------*||
-----3---------------------||---0--------------2--------|-----3---------------------||
--1-----------3------------||---------------0-----------|--1-----------3------------||

Segno
   E  E  E  E  E  E  E  E     E  E  E  E  E  E  E  E       E  E  E  E  E  E  E  E   
---------------1--------1--|--3--------3--6--3--1------||-----------------------6--|
---4-----3--4--------4-----|--------6--------------4---||--4--4--4--4--4--3--3-----|
*-----0--------------------|--------0-----------------*||--------0-----------------|
*-----------------0--3-----|-----------------0--3-----*||-----1-----------0--3-----|
---3-----------------------|-----6---------------------||--3-----------------------|
---------------3-----------|--4-----------6------------||--------------3-----------|


  IV             III          --                -]         VI             -]        
  E  E  E  E  E  E   E  E     E  E  E  E  E  E  E   E      E  E  E  E  E  E  E  E   
--6--4--4------------------|-----------------------10--|--10--6--6-----------------|
-----------------3---4--6--|--4--4--4--4--4--3--3------|------------6--6-----3--4--|
-----------5--5------------|---------------------------|------------------8--------|
---------------------3-----|--------5-----------3------|---6-----------------3-----|
-----6-----------5---------|--3--------------5---------|------6--------------------|
--4-----------6------------|--------------3------------|---------------6-----------|


    E  E  E  E  E  E  E  E     E  E  E  E  E  E  E  E       E  E  E  E  E  E  E  E   
|---------------------------|---------------------------||--5-----3--5--7-----5--7--|
|---------------------------|-----------------------0---||--------------------------|
|*--0--2--2--2--2--0--0--0--|--0--2--2--------0--2-----*||--------------------------|
|*--------2-----------0-----|-----------2--2--0--------*||-----2--------------0-----|
|---0--3-----------2--------|-----3---------------------||--0-----------------------|
|---------------0-----------|--1-----------3------------||--------------0--7--------|


  VII            -]                                          VIII   -]                 
  E   E   E  E   E  E  E  E     E  E  E  E  E  E  E   E      E   E  E  E  E  E  E  E   
--8----------8--10--8--7-----|-----5--5--------3--3--10--|--10---8--8--7--7--3--5--7--|
---------12---------------8--|--8--------5--5------------|----------------------------|
-----------------------------|---------------------------|----------------------------|
--------------------0--------|--------------------0------|-------------------0--------|
--8-------------10-----------|--0--7-----------2---------|---8------------------------|
------8----------------------|--------------0------------|-------8--------3-----------|


  E  E  E  E  E  E  E  E     E  E  E  E  E  E  E  E     E  E  E  E  E  E  E  E   
--5--5--5--5--5--3--3--3--|--3--5--5-----0--3--5--7--|--5--5--5--5--5--3--3--3--|
--------------------------|-----------5--------------|--------------------------|
--------------------------|--------------------------|--------------------------|
-----2--------------------|-----------------0--------|-----2--------------------|
--0--------------2--------|-----3--------------------|--0--------------2--------|
--------------0-----------|--1-----------3-----------|--------------0-----------|


                   Da Segno                            ^                  
  E  E  E  E  E  E  E  E     Q    Q     Q     Q        W                  
--3--5--5-----0--3--5--7--|--7----8----10----12----|--15----------------||
-----------5--------------|--5---------------------|--------------------||
--------------------------|-------9----10----12----|--16----------------||
-----------------0--------|------------------------|--------------------||
-----3--------------------|--7---------------------|--------------------||
--1-----------3-----------|--5---------------------|--------------------||

Legend
---------------
W - whole
H - half
Q - quarter
E - 8th
^ - brush up
Note : "Da segno" loop is optional

Login or Register to remove this ad.

3 comments on Totsuzen No Wakare

Great. I've been negleting

5

Great. I've been negleting you for a while now. Man you got talent, please do send more. Your Legend of Mana arrangments gave a chill down my spine, never thought I'd see Sparkling City in a Guitar Arrangement!!! Diralark, Kudos!

All these compliments its

All these compliments its embarassing.. hum ... hehe.. tyvm anyway.. & YES I ll build & publish new arrangments, just becoz I like to practice this activity to fill some free time sometimes.

don´t know the anime, but i

5

don´t know the anime, but i love this tab .good job!