Ads

Nanairo no Sora wo (Aria the OVA ~Arietta~) Guitar Tab

Submitted: May 07, 2016 by thedstring (Last updated: May 07, 2016)

5
Average: 5 (4 votes)
Download | Listen
Game: Aria the OVA ~Arietta~
Composer(s): Choro Club, Takeshi Senoo, Mina Kubota
Style: Arrangement, Fingerstyle, Natural harmonics

Click here for a video example.

AutoScroll: Slow | Medium | Fast
Aria the OVA: Arietta ~ Nana iro no Sora o

Arranged by Nate Brooks (thedstring)

Drop D tuning
Capo fret 1

-- the intro has a bit of a free flowing timing, it's not really any time signature.  Just play it as it feels.
-- I'm not going to put any timing markers in the opening because of this.

-- I will put something like //1:00 to tell you where you're supposed to listen in the youtube video of original
-- https://www.youtube.com/watch?v=4Df3JzEbTU0

     // sweep down
      w                       
E |---0--------------------|--7-----7--7------9--------|--9------------------|-----------------|--------0-----0--|
B |---10-------------------|-----------7--------7------|---------------2-----|-----------------|-----------------|
G |---11-------------------|--7--------9----------7----|------------4-----4--|-----------------|--------2--------|
D |--<12>------------------|-----------0-----------<7>-|---------------------|--4--------------|-----------------|
A |--<12>------------------|---------------------------|---------------------|--5--------------|--------------0--|
D |------------------------|---------------------------|---------------------|-----------------|-----------------|


--0--------------2--|----9----------|----------------|--------------|--------------|----------<7>---|
--------------2-----|-------7-------|-----------7----|--5/-7-----0--|-----7-\2-/10-|-----0----------|
-----------2--------|---------------|----------------|--------6-----|--------------|----------------|
--------------------|---------------|----------------|--0-----------|--------0-----|-------<7>------|
--------------------|---------------|----------------|--------------|--------------|-<12>-----------|
--0-----------------|---------------|----------------|--------------|--------------|----------------|


-----------5--|--5--3---------------3--|---------2h-3------2--------------|--------0--------9~~~~------------|
--------------|-----------------0------|--0-------------------------------|--0--------------10~~~---------7--|
--------------|--2----------2----------|--2-------------------------------|-----2--------7-------------------|
--------------|------------------------|-------------------------------4--|----------------------------------|
--------------|------------------------|--0-------------------------------|----------------------------------|
--------------|--5---------------------|-------------------0--------------|----------------------------------|

           
--------------------2-|------------|---------------5--|--5--3----------------|--------3----|--2----------|--9---------------|
-5/-7-----0-----------|--2/-10-----|------------------|--0-----------0-------|--0----------|--2----------|--7-----<7><7><7>-|
-------6---------2----|------------|------------------|--0--------0-----2----|--2----------|--4--------7-|-----6------------|
-0--------------------|--4---------|------------------|----------------------|-------------|--4----------|------------------|
----------------------|-------<12>-|------------------|----------------------|--0----------|--0----------|-----0------------|
----------------------|--0---------|------------------|--5-------------------|-------------|--0----------|------------------|


// 1:00
// start playing with a more measured gate for the rest of the song
        q    q       e  e  e  q     e     q     e  e  e  e     e  e  e  e  e  e     q     e  e  e  e     e  e  e  e  e  e
--------2----5----|--5--------3-----2--|-----------------5--|--5-----3-----2-----|--2--------------5--|--5-----3-----5--7--|
------------------|--------0-----------|--3-----------3-----|-----------0-----3--|--------2-----3-----|-----------0--------|
------------------|-----0--------------|--------0-----------|--0--2--------------|-----------2--------|-----0--------------|
------------------|--2-----------------|--4--------4--------|--------------------|--0-----------------|--2-----------------|
------------------|--------------------|--------------------|--------------------|--------------------|--------------------|
------------------|--------------------|--------------------|--------------------|--------------------|--------------------|


 e  e  e  e  e  e     e  e  e  e  e  e     e  e  e  e  e  e     h           e  e     e  e  e  e  e  e     q     e  e  e  e
----5--------------|-----0-----5--------|--0-----------9\-5--|--5-----------2--5--|--7-----------7--5--|--5--------------0--|
-7--------------7--|--7--------------7--|--------0-----------|--------------------|-----0-----0--------|--------------7-----|
-------6-----6-----|--------7-----7-----|-----0-----9--------|--------------------|--0-----0-----------|-----------6--------|
-4--------4--------|--5-----------------|--7-----------------|--0-----------------|--------------------|--------7-----------|
-------------------|--------------------|--------------------|--------------------|--------------------|--5-----------------|
-------------------|--------------------|--------------------|--------------------|--------------------|--------------------|


 q     e  e  e  e     e  e  e  e  e  e     e  e  e  e  e  e     e  e  e  e  e  e     e  e  e  e  e  e     e  e  e  e  e  e   
-------------9--5--|--5--------------5--|--7-----------7--5--|--5-----------5-----|-----------------0--|-----0-----5--------|
-7--------0--------|--------0-----7-----|--------7-----------|-----0-----------8--|--7-----------7-----|--------7-----------|
-0-----0-----------|-----7--------------|-----7-----7--------|--------7-----6-----|--------0-----------|--7-----------0-----|
-------------------|--0--------0--------|--5-----------------|--0-----------7-----|-----0-----7--------|-----------------7--|
-------------------|--------------------|--------------------|-----------0--------|--------------------|--7-----------------|
-------------------|--------------------|--------------------|--------------------|--5-----------------|--------------------|

                                                                                     // sweep up
  e  e  e  e  e  e     h           e  e     e  e  e  e  e  e     e  e  e  e  e  e   
-----------------5--|--5-----------9--5--|--5-----------5--2--|--------------0--2--|--0---------------|
-----------0--7-----|--7-----------------|--------3-----------|--3-----------------|--2---------------|
-----0--------------|--6-----------------|-----2--------------|--------0-----------|--0---------------|
--------7-----------|--------------------|--------------------|-----0-----0--------|--2------------0--|
--7-----------------|--------------------|--2--------0--------|--------------------|--0---------------|
--------------------|--------------------|--------------------|--2-----------------|------------------|


// 1:55
 e  e  e  e  e  e     e  e  e  e  e  e     e  e  e  e  e  e     e  e  e  e  e  e     e  e  e  e  e  e     e  e  e  e  e  e   
-2-----------2-----|--------------2-----|--------------2-----|--------------9--0--|--2-----------2-----|--------------2-----|
-2-----2--------2--|--------2--------2--|--------2--------2--|--------7-----------|--2-----2--------2--|--------2--------2--|
-4--------4--------|-----------4--------|-----------4--------|-----------7--------|--4--------4--------|-----------4--------|
----4--------------|-----4--------------|-----4--------------|-----7--------------|-----4--------------|-----4--------------|
-------------------|--0-----------------|--------------------|--0-----------------|--------------------|--0-----------------|
-0-----------------|--------------------|--0-----------------|--------------------|--0-----------------|--------------------|
   






                                            // 2:15
 e  e  e  e  e  e     e  e  e  q     e     e  e  e  e  e  e     e  e  e  e  e  e     e  e  e  e  e  e     e  e  e  e  e  e   
-------------2-----|--------9--------2--|--0--2--------------|-----------------2--|-----5--------------|-----------------5--|
-------2--------2--|----------<7>-------|-----------------0--|--------------0-----|--2--------------0--|--------------0-----|
----------4--------|-----7--------------|--------------2-----|-----------2--------|--------------2-----|-----------2--------|
----4--------------|--------------------|--------2--4--------|-----2--4-----------|--------2--4--------|-----2--4-----------|
-------------------|--0-----------------|-----0--------------|--0-----------------|-----0--------------|--0-----------------|
-0-----------------|--------------------|--0-----------------|--------------------|--0-----------------|--------------------|



                                                   // sweep up
 e  e  e  e  e  e     e  e  e  e  e  s s   e  e  e  e  e  e     e  e  q.       e     e  e  e  e  e  e     e  e  e  e  e  e   
-5--3--------------|--------------3----2|--2-----------9-----|-----------------2--|--0--2--------------|-----------------2--|
-------0--------0--|-----------------2--|-----------2--7--7--|-<7><7><7>----------|-----------------0--|--------------0-----|
----------0--------|--------0--------2--|--------2-----7-----|--------------------|--------------2-----|-----------2--------|
----0--------0-----|-----0--------2-----|-----2--------7-----|--------------------|--------2--4--------|-----2--4-----------|
-------------------|-----------0--------|--------------------|--------------------|-----0--------------|--0-----------------|
-5-----------------|--5-----------------|--0-----------------|--0-----------------|--0-----------------|--------------------|


                                                                                            // sweep up
 e  e  e  e  e  e     e  e  e  e  e  e     e  e  e  e  e  e     e  e  e  e  e  e     e  e  e  e  e  e     e  e  q     e  e   
----5--------------|-----------------5--|--5--7--------------|--------2h-3-----2--|--2-----------9-----|--------------2--5--|
-2--------------0--|--------------0-----|--------0--------0--|-----------------2--|-----------2--7--7--|-<7><7><7>----------|
-------------2-----|-----------2--------|-----------7--------|--------0--------2--|--------2-----7-----|--------------------|
-------2--4--------|-----2--4-----------|-----0--------0-----|-----0--------2-----|-----2--------7-----|--------------------|
----0--------------|--0-----------------|--------------------|-----------0--------|--------------------|--------------------|
-0-----------------|--------------------|--5-----------------|--5-----------------|--0-----------------|--0-----------------|


 // 2:53
 e  e  e  e  e  e     e  e  e  e  e  e     e  e  e  e  e  e     e  e  e  e  e  e     e  e  e  e  e  e     e  e  e  e  e  e   
-5--------3-----2--|-----------------5--|--5-----3-----2-----|--2--------------5--|--5-----3-----5--7--|--2--5-----------2--|
-------0-----------|--3-----------3-----|--------0--------3--|--------------3-----|-----------0--------|--------------2-----|
----0--------0-----|--------2-----------|-----2--------------|--------2-----------|--------0-----------|-----------2--------|
-------------------|-----0--------------|--------------------|-----4--------------|-----0--------------|--------2-----------|
-------------------|-----------0--------|-----------0--------|-----------0--------|--------------------|--------------------|
-2-----------------|--4-----------------|--5-----------------|--0-----------------|--2-----------------|--4-----------------|


                                            // 3:14
 e  e  e  e  e  e     e  e  e  e  e  e     e  e  e  e  e  e     e  e  e  e  e  e     e  e  e  e  e  e     e  e  e  e  e  e   
-2--------5--------|--0-----------------|--0-----------2-----|--------------2-----|--------------2-----|-----------------0--|
----------------0--|-----------0--2-----|--------2--------2--|--2-----2-----------|--2-----2--------2--|-----------0--------|
-------0-----0-----|--------0--------2--|--2--------4--------|-----------------4--|-----------4--------|-----0--------7-----|
----0--------------|-----2--------------|-----4--------------|-----4-----4--------|-----4--------------|--------7-----------|
-------------------|--0-----------------|--------------------|--0-----------------|--------------------|--0-----------------|
-5-----------------|--------------------|--0-----------------|--------------------|--0-----------------|--------------------|

                                                                                             // sweep up
  e  e  e  e  e  e     e  e  e  e  e  e     e  e  e  e  e  e     e  e  e  e  e  e     e   s s e   e   e   e   
--------------------|--------------------|--------------------|-----------------5--|--------------9----------|
--7--------0--------|--------------0-----|-----------0-----0--|-----------0--------|--------------7----------|
--------0-----0-----|--------0--------7--|-----0--------7-----|-----0--------7-----|----------7---7---7------|
-----0-----------0--|-----0-----7--------|--------7-----------|--------7-----------|--------7-----7-------7--|
--------------------|--------------------|--------------------|--------------------|------9------------------|
--5-----------------|--5-----------------|--5-----------------|--5-----------------|--0----------------------|


 // sweep up                                      // sweep up
  e  e  e  e  e  e     e  e  e  e  e  e     e  s s e   e   e   e      e  e  e  e  e  e     e  e  e  e  e  e   
--------------------|-----5--------------|-------------9-----------|--7-----------------|--------------------|
--7--------7--------|-----5--7--------0--|-------------7-------7---|-----------0--------|--------0-----0-----|
--7-----7-----7-----|-----------6--------|--6----------7---7-------|--------0-----7--6--|-----0-----7-----0--|
-----7-----------7--|--------------------|---------7---7-----------|-----0--------------|--7-----------------|
--7-----------------|--------------7-----|-----7/9-----------------|--------------------|--------------------|
--------------------|--0-----------------|--0----------------------|--5-----------------|--5-----------------|


                                           // start being a little more sloppy, strumming some of these
  e  e  e  e  e  e     e  e  e  q     e     e  e  e  e  e  e     e  e  e  e  e  e     e  e  e  e  e  e   
-----5--------------|--------------------|-----------2--------|--------------------|-----------0-----0--|
--------7--------0--|-----------0--------|--2--------2--------|--0--------0--------|-----------2--------|
-----------7--------|--------0-----------|--2-----2--2--2-----|--0-----0--0--0-----|--0-----0--0--0-----|
-----0--------0-----|-----0-----7-----0--|--4--4-----------4--|--0--0-----0-----0--|--2--2-----------2--|
--------------------|--------------------|--------------------|--------------------|--0-----------------|
--5-----------------|--5-----------------|--4-----------------|--5-----------------|--------------------|

                                                                                   // sweep up
  h           e  e     e  e  e  e  e  e     e  e  e  e  e  e     e  e  e  e  e  e     h              e
--0-----------------|-----------2--------|-----------2--------|--9-----------9-----|--9--------------2--|
--2-----------0--2--|--2--------2--------|--2--------2--------|--7-----7--------7--|--7-----------------|
--0-----------------|--4-----4--4--4-----|--4-----4--4--4-----|--7--------7--------|--7-----------------|
--2-----------------|--4--4-----------4--|--4--4-----------4--|--7--7--------------|--7-----------------|
--0-----------------|--------------------|--------------------|--------------------|--------------------|
--------------------|--0-----------------|--0-----------------|--7-----------------|--0-----------------|

 // slow down slightly
 // 4:10
  q     q     e  e     q.       q     e     q.       e  e  e     e  e  e  q     e     q     e  q     e
--0--------------0--|--2-----------------|--------------------|-----------9-----2--|--------------------|
--------3-----3-----|-----------3-----7--|--10-------10-8--7--|--7-----7-----------|--0-----3--------3--|
--------------------|--2-----------------|--0-----------------|-----7--------------|-----------0--------|
--5-----------------|--------------------|-----------9--------|--0-----------------|--2-----------------|
--------------------|--------------------|--------------------|--------------------|--------------------|
--------------------|--------------------|--------------------|--------------------|--------------------|


                                                              // normal speed
                                                              // 4:30
  q.       e  e  e     q.      q.                       e  e     e  e  e  e  e  e     e  e  e  e  e  e   
--0--------0-----0--|--2-------0---------|-----------------5--|--5-----3--------2--|-----------------5--|
--------------3-----|--3-------2---------|--------------3-----|-----------0--------|--3-----------3-----|
--2-----------------|--4-------2---------|--------------------|-----0--------------|--------2-----------|
--4-----------------|--------------------|--------------------|--2-----------2-----|-----0--------------|
--------------------|--------------------|--------------------|--------------------|-----------0--------|
--------------------|--------------------|--------------------|--------------------|--4-----------------|


  e  e  e  e  e  e     e  e  e  e  e  e     e  e  e  e  e  e     e  e  e  e  e  e     e  e  e  e  e  e   
--5-----3-----2-----|--2--------------5--|--5-----3-----5--7--|--2--5-----------2--|--2--------5--------|
--------0--------3--|--------------3-----|-----------0--------|--------------2-----|-----------------0--|
-----2--------------|--------2-----------|--------0-----------|-----------2--------|--------0-----0-----|
--------------------|-----4--------------|-----0--------------|--------2-----------|-----0--------------|
-----------0--------|-----------0--------|--------------------|--------------------|--------------------|
--5-----------------|--0-----------------|--2-----------------|--4-----------------|--5-----------------|


                      // 4:49                                                         // 4:56
  e  e  e  e  e  e     e  e  e  e  e  e     e  e  e  e  e  e     e  e  e  e  e  e     e  e  e  e  e  e   
--5--------------5--|--5-----------2--5--|--7-----------7--5--|--5-----------2--0--|--2--------------5--|
-----------0--------|-----------2--------|-----------0--------|--------------------|-----------0--------|
--------0-----------|--------2-----------|--------0-----0-----|--------2-----------|--------0-----------|
-----2--------------|-----4--------------|-----0--------------|-----4--------------|-----0--------------|
--0----------<4>----|--------------------|--------------------|-----------0--------|-------------<4>----|
--------------------|--0-----------------|--5-----------------|--0-----------------|--5-----------------|


                                           // 5:03
  e  e  e  e  e  e     e  e  e  e  e  e     e  e  e  e  e  e     e  e  e  e  e  e     e  e  e  e  e  e   
--5-----------2--5--|--7-----------7--5--|--5-----------5--3--|--2--------------5--|--5-----------2--5--|
--------0-----0-----|--------0-----0-----|--------------2-----|--------0-----------|--------0-----0-----|
-----2--------------|-----0-----------0--|--------4-----2-----|-----0--------------|-----2--------------|
-----------0--------|-----------0--------|-----4--------------|-----------0--------|-----------0--------|
--------------------|--------------------|-----------0--------|-------------<4>----|--------------------|
--0-----------------|--5-----------------|--4-----------------|--5-----------------|--0-----------------|


 // 5:10
  e  e  e  e  e  e     e  e  e  e  e  e     e  e  e  e  e  e     e  e  e  e  e  e     e  e  e  e  e  e   
--7-----------7--5--|--5-----------5--3--|--2--------------5--|--5-----------2--5--|--7-----------7--5--|
--------0-----0-----|--------------2-----|--------0-----------|--------0-----0-----|--------0-----0-----|
-----0-----------0--|--------2-----2-----|-----0--------------|-----2--------------|-----0-----------0--|
-----------0--------|-----4--------------|-----------0--------|-----------0--------|-----------0--------|
--------------------|-----------0--------|-------------<4>----|--------------------|--------------------|
--5-----------------|--0-----------------|--5-----------------|--0-----------------|--5-----------------|


                                           // 5:27                                  // slow down
  e  e  e  e  e  e     e  e  e  e  e  e     e  e  e  e  e  e     e  e  e  e  e  e     e  e  e  q     e   
--5-----------5--3--|--2-----------2--0--|-----0--2--5--------|--------------2--5--|--5--------------9--|
--------------2-----|--------0-----3-----|--3--------3-----3--|-----------0--------|--------2-----------|
--------4-----2-----|-----0--------------|--------0-----0-----|--------0-----------|-----2-----2--------|
-----4--------------|-----------0--------|-----0--------------|-----0--------------|--------------------|
-----------0--------|--------------------|--------------------|--------------------|--------------------|
--4-----------------|--5-----------------|--2-----------------|--2-----------------|--4-----------------|


                                                                // 5:42
  e  e  e  e  e  e     e  e  e  e  e  e     e  e  e  e  e  e     e  e  e  e  e  e     e  e  e  e  e  e   
--5-----------5--2--|--------------0--2--|--0-----------------|-----------0--------|--------------------|
--------3-----------|--3-----------------|--------------2--3--|--3-----------0-----|-----------3--------|
-----2--------------|-----------0--------|-----------0--------|--------0--------0--|--------0-----0-----|
--------------------|--------0-----------|-----0h-2-----------|-----0--------------|-----2-----------2--|
--2--------0--------|-----2--------------|--0-----------------|--------------------|--------------------|
--------------------|--2-----------------|--------------------|--5-----------------|--5-----------------|


                                                          // sweep up
  e  e  e  e  e  e     w               q.      q.           w
-----------0-----5--|---------------|--------------------|--9---------------||
--------0-----0-----|-<7>-----------|--------------------|--10--------------||
-----2--------------|-<7>-----------|--------------------|--7---------------||
--0-----------------|-<7>-----------|-<12>---------------|--7---------------||
--------------------|---------------|---------<9>--------|--7---------------||
--------------------|---------------|--------------------|--0---------------||








Login or Register to remove this ad.

2 comments on Nanairo no Sora wo

Nice one!

Nice one!

I also just realized that my

I also just realized that my "sweep up"s or "sweep down"s might seem backwards. The "sweep up" is replacing an upward arrow in the sheet music.

So a sweep up is like this

|------0-|
|-----0--|
|----1---|
|---2----|
|--2-----|
|-0------|