Ads

Waltz for Aria (Aria the Origination) Guitar Tab

Submitted: Mar 06, 2014 by tomorning

5
Average: 5 (4 votes)
Download | Listen
Game: Aria the Origination
Composer(s): Choro Club, Takeshi Senoo, Mina Kubota
Style: Arrangement, Fingerstyle

AutoScroll: Slow | Medium | Fast
                                      Waltz for Aria
                   ~ from anime "Aria The ORIGINATION" Piano Collections ~

Music by Takeshi Senoo / 妹尾武
allanged by to*morning

 3/4

Tempo = 120 ( ~*rubato*~ )

|-17------|-16------|-15----|
|-15------|-15------|-14----|
|-14------|-13------|-14----|
|-16------|-15------|-14----|
|---------|---------|-------|
|---------|---------|-------|


|---------9--|-10--12----|-(12)----||
|-10--12-----|-----------|---------||
|---------6--|--7---9----|--(9)----||
|------9-----|-----------|---------||
|------------|-----------|---------||
|------------|-----------|---------||


|---------|---------|---------|---------||
|----3----|----3----|----3----|----3----||
|----2----|----2----|----2----|----2----||
|----4----|----4----|----4----|----4----||
|-5-------|-0-------|-5-------|-0-------||
|---------|---------|---------|---------||


|-------2--|-2--0-----|--------0--|-----------|
|----3-----|----3--3--|-3--2h3----|----(5)----|
|-2--2-----|----0-----|----2------|-----0-----|
|----4-----|-------4--|----2------|-----2-----|
|-5--------|-0--------|-----------|-0---------|
|----------|----------|-0---------|-----------|


|-------0--|-3--2-----|--------2--|---------|
|----2-----|----2---5-|-5--3h5----|----3----|
|-2--2-----|----2-----|----2------|----2----|
|-2--------|----2-----|-0---------|----4----|
|----------|-0--------|-----------|-0-------|
|----------|----------|-----------|---------|


|--------5-|-5--3--2--|-2--0h2-3--|-0-----2p0--|
|----3-----|----1-----|----0------|----3-------|
|-2--2-----|----------|-----------|----0-------|
|-0--------|-1--------|-2---------|------------|
|----------|----------|-----------|-1----------|
|----------|----------|-----------|------------|


|----------2-|-2--0-----|-----0-----|-----------|
|--------3---|-------3--|-2h3-------|-----------|
|-2----4-----|----1-----|--------2--|-4--2------|
|----4-------|----2-----|-----2-----|-2-----5---|
|-0----------|----------|-0---------|-4---------|
|------------|-0--------|-----------|-----------|


|-------2--|-2--0-----|----------|-0---------|
|----3-----|----3---3-|-3--2---3-|----(5)----|
|-2--2-----|----0-----|----2-----|-----0-----|
|----4-----|--------4-|----2-----|-----2-----|
|-5--------|-0--------|----------|-0---------|
|----------|----------|-0--------|-----------|


|-------0--|----7--5--|---------|-------2S3--|
|----2-----|-8--------|-8--7----|----4-------|
|-2--2-----|----6--6--|----5----|------------|
|-2--------|----5-----|----7----|----4-------|
|----------|-0--------|-6-------|-0----------|
|----------|----------|---------|------------|


|-2--0-----|-0-----0h2-|-0--------|------------|
|----0--0--|-----------|----3-----|-3-----2-0--|
|----0-----|----3------|-------2--|-1----------|
|----------|----0------|----0-----|----0-------|
|----------|-----------|----------|------------|
|-3--------|-3---------|-2--------|-1----------|


|-------0--|-3-7-5-3-2p0-|-0-------|---------||
|----2--2--|-------------|---------|-3-------||
|-2--2-----|-------------|---------|---------||
|-2--------|-------------|-5----2--|-4-------||
|----------|-0-----------|-5-------|-5-------||
|-0--------|-------------|---------|---------||


|-17------|-16------|-15--------|-----9--10--|-12----||
|-15------|-15------|-14----10--|-12---------|-------||
|-14------|-13------|-14--------|-----6---7--|--9----||
|-16------|-15------|-14--------|--9---------|-------||
|---------|---------|-----------|------------|-------||
|---------|---------|-----------|------------|-------||

                                    |-3-| |-3-|  
|--------2-|-2--0-----|--------0--|-----------------|
|----3-----|----3--3--|-3--2-3----|---3-3-2-2-0-0---|
|-2--2-----|----0-----|----2------|---0-0-0-0-0-0-2-|
|----4-----|-------4--|----2------|---2-2-2-2-2-2-2-|
|-5--------|-0--------|-----------|-0---------------|
|----------|----------|-0---------|-----------------|


|-------0--|-3-7-5-3-2p0-|-0------0-|-2-------|
|----2--2--|-------------|----3-----|----3----|
|-2--2-----|-------------|-0--------|---------|
|-2--------|-------------|----4-----|----4----|
|----------|-0-----------|-5--------|-0-------|
|-0--------|-------------|----------|---------|


|--------5-|-5--3--2--|-2--0---2-|-3-----2p0--|
|----3-----|----1-----|----0-----|----3-------|
|-2--2-----|----------|----------|----0-------|
|-0--------|-1--------|-2--------|------------|
|----------|----------|----------|-1----------|
|----------|----------|----------|------------|


|----------2-|-2--0-----|-----0-----0-|-----------|
|--------3---|-------3--|-2h3-----2---|-----------|
|-2----4-----|----1-----|-------2-----|-4--2------|
|----4-------|----2-----|-------------|-2-----5---|
|-0----------|----------|-0-----------|-4---------|
|------------|-0--------|-------------|-----------|


|-------2--|-2--0-----|----------|-0---------|
|----3-----|----3--3--|-3--2---3-|----(5)----|
|-2--2-----|----0-----|-2--2-----|-----0-----|
|----4-----|-------4--|-2--2-----|-----2-----|
|-5--------|-0--------|----------|-0---------|
|----------|----------|-0--------|-----------|


|-------0--|----7--5--|---------|--------14-15--|
|----2-----|-8--------|-8--7----|---------------|
|-2--2-----|----6--6--|----5----|----11---------|
|-2--------|----5-----|----7----|----13---------|
|----------|-0--------|-6-------|-0-------------|
|----------|----------|---------|---------------|


|-14--12------|-12------12h14-|-12--10------|-10-----9-7--|
|-----12--12--|-----11--------|-----10--10--|--9----------|
|-----12------|--0------------|-------------|-----7-------|
|-------------|---------------|-------------|-------------|
|-10----------|---------------|--9----------|--8----------|
|-------------|---------------|-------------|-------------|


|---------12--|-15-19-17-15-14-12-|-12------|-10-------*|
|-----14--14--|-------------------|-12------|-10-------*|
|-14--14------|-------------------|-12------|-11-------*|
|-------------|-------------------|--0------|--0-------*|
|-------------|--0----------------|---------|----------*|
|--0----------|-------------------|---------|----------*| fine.
Login or Register to remove this ad.