Ads

Tayorinai Funade (Aria the Origination) Guitar Tab

Submitted: May 10, 2016 by tomorning

5
Average: 5 (4 votes)
Download | Listen
Game: Aria the Origination
Composer(s): Choro Club, Takeshi Senoo, Mina Kubota
Style: Arrangement, Fingerstyle

AutoScroll: Slow | Medium | Fast
                               Tayorinai funade
                                (頼りない船出)
                       ~ from anime "ARIA The ANIMATION" ~


Music by Shigeharu Sasago (笹子 重治)
arranged by to*morning

Standard Tuning (E A D G B E)


      >     >    >  >      >     >    >  >      >     >    >  >      >     >    >  >   
      Q     Q    E  E      Q     Q    E  E      Q     Q    E  E      Q     Q    E  E   
E||---------3----3-----|---------3----3-----|---------3----3-----|---------3----3-----|
B||---------3----3-----|---------3----3-----|---------3----3-----|---------3----3-----|
G||--(5)------------x--|--------------------|--(5)------------x--|--------------------|
D||--------------------|--(5)------------x--|--------------------|--(5)------------x--|
A||---3----------------|--------------------|---3----------------|--------------------|
E||--------------------|---3----------------|--------------------|---3----------------|


   >     >    >  >      >     >    >  >      >     >    >        >                  
   Q     Q    E  E      Q     Q    E  E      Q     Q    Q        Q     E  E  E  E   
---------3----3-----|---------3----3-----|---------3---------|---------0--------0--|
---------3----3-----|---------3----3-----|---------3---------|---1--------3--1-----|
--(5)------------x--|--------------------|--(5)---------0----|---0-----------------|
--------------------|--(5)------------x--|-------------------|--(2)----------------|
---3----------------|--------------------|---3---------------|---3-----------------|
--------------------|---3----------------|--------------3----|---------------------|


    >    >            >    >              >    >            >    >           
    Q    Q    Q       Q    E  E  E  E     Q    Q    Q       Q    Q    E  E   
|---3--------------|-------------------|--1--------------|------------------|
|-------------3----|-------3--1--0--3--|------------1----|-------1----1--3--|
|*-------0----0----|-------0-----0-----|-------3----3----|-------2----2-----|
|*-----------------|-------------------|-----------------|------------------|
|---2--------------|-------------------|--1--------------|------------------|
|------------------|--3----------------|-----------------|--1---------------|


  >    >            >    >                  >    >        >                  
  Q    Q    Q       Q    E  E  Q       Q    Q    Q        Q     E  E  E  E   
-----------------|------------------|-----------------|---------0--------0--|
--4----4----4----|--3-------1-------|--1--------------|--(1)-------3--1-----|
-------5----5----|-------3-----3----|-------0----0----|--(0)----------------|
-----------------|-------3-----3----|-----------------|--(2)----------------|
-----------------|--1---------------|--3--------------|---3-----------------|
--4--------------|------------------|------------3----|---------------------|


  >    >            >    >              >    >            >    >           
  Q    Q    Q       Q    E  E  E  E     Q    Q    Q       Q    Q    E  E   
--3--------------|-------------------|--1--------------|------------------|
------------3----|-------3--1--0--3--|------------1----|-------1----1--3--|
-------0----0----|-------0-----0-----|-------3----3----|-------2----2-----|
-----------------|-------------------|-----------------|------------------|
--2--------------|-------------------|--1--------------|------------------|
-----------------|--3----------------|-----------------|--1---------------|


1.____________

  >    >            >    >    >            >             >                    
  Q    Q    Q       Q    Q    Q       Q    Q    Q        Q     E  E  E  E     
-----------------|-------1---------|-----------------|---------0--------0---||
--4----4----4----|--3--------------|--1--------------|--(1)-------3--1------||
-------5----5----|------------3----|------------0----|--(0)----------------*||
-----------------|-------3----3----|-------2---------|--(2)----------------*||
-----------------|--1--------------|--3--------------|---3------------------||
--4--------------|-----------------|------------3----|----------------------||


2.____________

  >    >            >    >    >                                            
  Q    Q    Q       Q    Q    Q       Q    Q    Q        Q     Q    E  E   
-----------------|-------1---------|-----------------|--------------0--2--||
--4----4----4----|--3--------------|--1--------------|---1----------------||
-------5----5----|------------3----|------------0----|---0----------------||
-----------------|-------3----3----|-------2---------|--(2)---------------||
-----------------|--1--------------|--3--------------|---3----------------||
--4--------------|-----------------|------------3----|--------------------||


  E  E  E  E  Q       E  E  E  E  Q       Q    Q    Q       Q    E  E   E   E   
--3-----------3----|-----------0-------|--0--------------|--------------0------|
-----------0-------|--7-----------4----|------------0----|----------0--(0)--3--|
--------0----------|--------4----------|-------0---------|--1----2------1------|
-----2-------------|-----4-------------|-------2---------|--2----4-------------|
-------------------|--6----------------|-----------------|---------------------|
--0----------------|-------------------|--0--------------|---------------------|


  E  E  E  E  E  E     E  E  E  E  E  E      Q     E  E  E  E     Q     E   E  E  E   
-----------------0--|--2--3--2--0--------|---------------------|---------------------|
--1-----0--1--3-----|--------------3--1--|---0-----------------|--------0---------0--|
-----2--------------|--------------------|---0-----------------|------------2--0-----|
--------------0--2--|--4--5--4--2--------|--(0)----------------|--------2------------|
--0-----------------|--------------5--3--|---------2--0--------|-------(2)-----------|
--------------------|--------------------|---3-----------3--2--|--0------------------|


  Q    Q    E  E     Q    Q    Q       Q    Q    Q        H         E  E   
------------------|-----------------|------------0----|---3---------------|
---------------0--|--1----0---------|-------0---------|--(0)--------------|
--2---------2-----|-------2----2----|--0--------------|---0---------0--2--|
-------2----------|-------1---------|--2----1----0----|-------------------|
------------0--1--|--2--------------|-----------------|---4---------------|
--2---------------|-----------------|-----------------|-------------------|


  E  E  E  E  Q       E  E  E  E  Q       Q    Q    Q       Q     Q     E  E   
-------------------|-------------------|-----------------|-------(3)----------|
-----------3-------|--------1----------|-----------------|--0-----------------|
--3-----3-----3----|--2----------------|--0---------2----|--0-----------0--2--|
-----5-------------|-----3--------3----|-------0---------|--------------------|
--6----------------|-----------3-------|-----------------|--------------------|
-------------------|--1----------------|--3--------------|--------------------|


  E  E  E  E  Q       Q    Q    Q       Q    Q    Q       Q    E  E  E  E   
-------------------|-----------------|-----------------|-------0--------0--|
--------------3----|--1--------------|-----------------|----------3--1-----|
--3-----3----------|-------2---------|--0--------------|--0----------------|
-----5-----5-------|-------3----3----|------------0----|--0----------------|
--6----------------|------------3----|-------2---------|-------------------|
-------------------|--1--------------|--3--------------|--3----------------|


  >    >            >    >              >    >            >    >           
  Q    Q    Q       Q    E  E  E  E     Q    Q    Q       Q    Q    E  E   
--3--------------|-------------------|--1--------------|------------------|
------------3----|-------3--1--0--3--|------------1----|-------1----1--3--|
-------0----0----|-------0-----0-----|-------3----3----|-------2----2-----|
-----------------|-------------------|-----------------|------------------|
--2--------------|-------------------|--1--------------|------------------|
-----------------|--3----------------|-----------------|--1---------------|


  >    >                 >                  >    >                           
  Q    Q    Q       Q    E  E  Q       Q    Q    Q        Q     E  E  E  E   
-----------------|------------------|-----------------|---------0--------0--|
--4----4----4----|--3-------1-------|--1--------------|--(1)-------3--1-----|
-------5----5----|-------3-----3----|-------0----0----|--(0)----------------|
-----------------|-------3-----3----|------------0----|--(2)----------------|
-----------------|--1---------------|--3--------------|---3-----------------|
--4--------------|------------------|------------3----|---------------------|


  >    >            >    >              >    >            >    >           
  Q    Q    Q       Q    E  E  E  E     Q    Q    Q       Q    Q    E  E   
--3--------------|-------------------|--1--------------|------------------|
------------3----|-------3--1--0--3--|------------1----|-------1----1--3--|
-------0----0----|-------0-----0-----|-------3----3----|-------2----2-----|
-----------------|-------------------|-----------------|------------------|
--2--------------|-------------------|--1--------------|------------------|
-----------------|--3----------------|-----------------|--1---------------|


  >    >            >    >    >                                           
  Q    Q    Q       Q    Q    Q       Q    Q    Q        Q     Q    Q     
-----------------|-------1---------|-----------------|-------------------|
--4----4----4----|--3--------------|--1--------------|---1---------------|
-------5----5----|------------3----|------------0----|---0----------5----|
-----------------|-------3----3----|-------2---------|--(2)--------------|
-----------------|--1--------------|--3--------------|---3---------------|
--4--------------|-----------------|-----------------|-------------------|


  E  E  E  E  Q       E  E  E  E  Q       E  E  E  E  E  E     E  E  E  E  Q     
--8-----------8----|--7-----3-----0----|--5-----------------|--------------3----|
--------0-----0----|--------0----------|--------6-----------|-----------3-------|
-----5-----5-------|-----0-----0-------|-----5-----5--------|--------1----------|
-------------------|-------------------|--3-----------------|-----2-------------|
--0----------------|-------------------|--------------3--2--|--1----------------|
-------------------|--0----------------|--------------------|-------------------|


                         >                 >    >                                         
  H        E  E     Q    Q    Q       Q    Q    Q       Q    Q    Q       Q.     Q.       
-----------------|-----------------|-------1---------|-----------------|----------------||
-----------1--3--|--4----4----4----|--3--------------|--1--------------|--1-------------||
-----------------|-------5----5----|------------3----|--0---------0----|--0-------------||
-----------------|-------6----6----|-------3----3----|-------2----2----|--2-------------||
-----------------|-----------------|--1--------------|--3----3---------|--3-------------||
-----------------|--4--------------|-----------------|-----------------|----------------|| fine...

Login or Register to remove this ad.

2 comments on Tayorinai Funade

I have to say that bar 40 to

5

I have to say that bar 40 to 47 totally reminds me of the intro to seal's kiss from a rose lol.
Good job (*TーT)b

An orientation for the change

An orientation for the change is met for all issues. Paths of the online assignment help are hired for the goals. This shape is merged for the targeted victory and goal for the expected element for the citizens.