Ads

Quiet Tea Time (Aria the Origination) Guitar Tab

Submitted: Apr 06, 2014 by tomorning

5
Average: 5 (6 votes)
Download | Listen
Game: Aria the Origination
Composer(s): Choro Club, Takeshi Senoo, Mina Kubota
Style: Arrangement, Fingerstyle

AutoScroll: Slow | Medium | Fast
                                  Quiet Tea Time
                          ~ from anime "ARIA The ORIGINATION" ~

Music by Shigeharu Sasago (笹子重治) / Choro Club
arranged by to*morning

Standard Tuning (E A D G B E)


Moderato

  2/4       4/4

E|------0-||---------------|------------(0)---|---------------|-----------------|
B|--1h2---||-------3-----2-|-------0--------3-|-------1-----0-|------------0h1--|
G|--------||-----2---------|-----1------------|-----4---------|------2----------|
D|--------||---4-----------|---2------2-------|---2-----------|---1-------------|
A|--------||-2--------2----|------------------|-0-------------|-2-------2-------|
E|--------||---------------|-0----------------|----------0----|-----------------|


|---------------|-----------0----|----------0----|---------------|
|-------0-------|-------0------3-|-------0-------|-----0---------|
|-------0-----2-|---0-----2------|-----0-------2-|---------2---0-|
|-----4-------3-|-----3----------|---2-----------|-3p1---1-------|
|---2-----------|----------------|-3-------------|---------3-----|
|-0--------0----|-3--------------|---------------|---------------|


|-------0--3---2-|----------------|---------------|-------0-------|
|---0------------|-----------2--4-|-------4-------|---0------0--2-|
|-------0--------|-------2--------|-----3-----3---|-------1-------|
|-----4----------|-----2-----2--4-|---4-------4---|-----1---------|
|---2------------|---4------------|-2-------2-----|---2-----------|
|-0----------0---|-2-------2------|---------------|-0-------------|


|----------------|----------------|---------------|-------------0-||
|-------2--------|-----2-1------4-|----------4----|-4-4--3--1h2---||
|-----1-----1--0-|---0-------3--5-|------5--------|-5-5--5--------||
|---2-------2----|-1------------5-|---5-----------|-4-4--4--------||
|-1-------1------|---------1------|-------------x-|-5-5--5--------||
|----------------|----------------|-4------4------|---------------||


|---------------|------------(0)---|---------------|-----------------|
|-------3-----2-|-------0--------3-|-------1-----0-|------------0h1--|
|-----2---------|-----1------------|-----4---------|------2----------|
|---4-----------|---2------2-------|---2-----------|---1-------------|
|-2--------2----|------------------|-0-------------|-2-------2-------|
|---------------|-0----------------|----------0----|-----------------|


|---------------|--------------3-|-----------0----|----------------|
|-------0-------|-------0---3--0-|-------0--------|-----0-------1--|
|-------0-----2-|---0-----2------|-----0--------2-|---------2-3----|
|-----4-------3-|-----3----------|---2------------|-3p1---1--------|
|---2-----------|----------------|-3-------3------|---------3------|
|-0--------0----|-3--------------|----------------|----------------|


|-1-------------|---------------|----------------|---------------|
|-----1----3----|-----3p1-------|-4--------------|-------4-------|
|-------0-----0-|---0-----0-2-3-|-----5-----0----|-----5-----0-2-|
|---0-----------|-1-------------|---5---5------4-|---4-----4-----|
|-1--------1----|---------1-----|-0-------0------|-5-------0-----|
|---------------|---------------|----------------|---------------|


|---------------3-|---3---3---3-----|-----------------|--------------0-||
|-3---------3---3-|---3---3---3---3-|---3---3---3---6-|-------4--------||
|---2---2---2---1-|---1---1---1---0-|---0---0---0---5-|-----5----5h6---||
|---4---4---4-----|-----------------|---------------6-|---6------------||
|-2---x---2---x---|-1---x---1---x---|-0---x---0---x---|----------------||
|-----------------|-----------------|-----------------|-4--------------||


|--------------|---------------|----------------|---------------|
|------3-----2-|-------0-----3-|-------1---1--0-|-----------0h1-|
|------2-----0-|-----1-------4-|-----4-----4----|------2--------|
|---4----------|---2------2----|---2------------|---1-----------|
|-2-------2----|---------------|-0-------0------|-2-------2-----|
|--------------|-0-------------|----------------|---------------|


|---------------|-----------0----|-----0---------|----------------|
|-------0-------|-------0------3-|-------0---0---|-------0---4----|
|-------0-----2-|---0-----2------|-----------0---|-----2-----4--0-|
|-----4-------3-|-----3----------|---2-------2---|-3p1------------|
|---2-----------|----------------|-3-------3-----|---------3------|
|-0--------0----|-3--------------|---------------|----------------|

                           |-3-|
|-------0--3---2-|-------2-2-----|-----------------|-------0-------|
|---0------------|-----------2-4-|-------4---------|---0------0--2-|
|-------0--------|---------2-----|-----3-----3-----|-------1-------|
|-----4----------|-----2---4-----|---4-------4-----|-----1---------|
|---2------------|---4-----------|-2-------2----x--|---2-----------|
|-0----------0---|-2-------2-----|-----------------|-0-------------|


|----------------|----------------|--------------|-------------0-||
|-------2--------|-----2-1------4-|--------------|-4-4--3--1h2---||
|-----1-----1--0-|---0-------3--5-|-----5---5----|-5-5--5--------||
|---2-------2----|-1------------5-|-----5---3----|-4-4--4--------||
|-1-------1------|---------1------|------------x-|-5-5--5--------||
|----------------|----------------|-4-----4------|---------------||


|-----0---------|---------------|---------------|--------------|
|-------3-----2-|-------0-----3-|-------1-----0-|------------1-|
|----------2--0-|-----1-------4-|-----4---------|------2-------|
|---4-----------|---2------2----|---2-----------|---1----------|
|-2-------------|---------------|-0-------------|-2-------2----|
|---------------|-0-------------|----------0----|--------------|


|---------------|--------------3-|-----------0----|----------------|
|-------0-------|-------0---3--0-|-------0--------|-----0-------1--|
|-------0-----2-|---0-----2------|-----0--------2-|---------2-3----|
|-----4-------3-|-----3----------|---2------------|-3p1---1--------|
|---2-----------|----------------|-3-------3------|---------3------|
|-0--------0----|-3--------------|----------------|----------------|


|-1-------------|---------------|----------------|-----------------|
|-----1----3----|-----3p1-------|-4--------------|-------4---0-----|
|-------0-----0-|---0-----0-2-3-|-----5-----0----|-----5--------0--|
|---0-----------|-1-------------|---5---5------4-|---4-------------|
|-1--------1----|---------1-----|-0-------0------|-5-------0-------|
|---------------|---------------|----------------|-----------------|

                                                     rall............
|---------------3-|---3---3---3-----|-------1-------|---------------|
|---3---3---3---3-|---3---3---3---3-|-----3-----3---|-3-----3-------|
|---4---4---4---1-|---1---1---1---0-|---0-------0---|-----5---^5----|
|---4---4---4-----|-----------------|-1-------1-----|---5-----^5----|
|-------------x---|-1---x---1---x---|---------------|---------------|
|-3---x---3-------|-----------------|---------------|-4-------^4----|

rit.................................
|---------2--------2-------2-------|-2----*|
|-----2----------2-------2-------2-|------*|
|-4-----4------4-------4-------4---|------*|
|---4--------4-------4-------4-----|------*|
|----------------------------------|------*|
|-3--------------------------------|------*| fine.
Login or Register to remove this ad.