Ads

Peaceful Afternoon (Aria the Origination) Guitar Tab

Submitted: Jun 19, 2018 by tomorning

5
Average: 5 (2 votes)
Download | Listen
Game: Aria the Origination
Composer(s): Choro Club, Takeshi Senoo, Mina Kubota
Style: Arrangement, Fingerstyle

This song is also called おだやかな午後

AutoScroll: Slow | Medium | Fast
                                   Peaceful Afternoon
                                   (おだやかな午後)
                          ~ from anime "ARIA The ORIGINATION" ~

Music by Oh Akioka / 秋岡 欧 
arranged by to*morning

 4/4

 (Standard Tuning, EADGBE)

        >  >  >              >        >  >           >  >                                   >  >   
     E  E  E  E     E  E  E  E  E  E  E  E     E  E  E  E  E  E  E  E     E  E  E  E  E  E  E  E   
E||--------------|--------------------4-----|-----2--------------0-----|--------0-----------4-----|
B||--------------|-----2-----------5-----4--|--3-----------------------|-----2-----------5-----4--|
G||--------------|-----1-----0-----4-----3--|--2--------2-----5--------|-----1-----------4-----3--|
D||--------------|-----2-----------6-----5--|--4-----4--------6--------|-----2-----0-----6-----5--|
A||--------------|--0-----------4-----------|--2-----------------------|--0-----------4-----------|
E||-----0--2--4--|--------------------------|--------------0--------4--|--------------------------|


        >  >           >             >  >     >  >           >  >  >     >  >        >     >  >  >  >         
  E  E  E  E  E  E  E  E       E  E  E  E  E  E  E  E     E  E  E  E  E  E  E  E     E  E  E  E  E  E  E  E   
-----2--------------------||---------------0-----------|-----2--------------4--2--|--------------0-----------|
--3-----------------7-----||------------2-----3--2--3--|-----3-----------0--1-----|-----------2-----3--2--3--|
--2--------2-----5--------||*--------1-----------1-----|-----2-----0--1-----1-----|--------1-----------1-----|
--4-----4-----------------||*-----2-----2--------------|--------4-----------------|-----2-----2--------------|
--2-----------------------||---0-----------4-----------|--2-----------------------|--0-----------4-----------|
--------------0--------4--||---------------------------|--------------0-----------|--------------------------|


              >              >        >                    >  >  >     >  >                                 
  E  E  E  E  E  E  E  E     E  E  E  E  E  E  E  E     E  E  E  E  E  E  E  E     E  E  E  E  E  E  E  E   
-----2--------------------|--------------0-----------|-----2--------------4--2--|--------4-----------------|
-----3--------------------|-----------2-----3--2--3--|-----3-----------0--1-----|--5-----------------2-----|
-----2-----0--1--0--------|--------1-----------1-----|-----2-----0--1-----1-----|-----4-----------2--------|
--------4-----------4--3--|-----2-----2--------------|--------4-----------------|-----6-----6-----2--------|
--2-----------------------|--0-----------4-----------|--2-----------------------|--4--------------------0--|
--------------0-----4-----|--------------------------|--------------0-----------|--------------2-----------|


        >  >  >  >  >                                           >  >                                         
  E  E  E  E  E  E  E  E       E  E  E  E  E  E  E  E     E  E  E  E  Q    E  E     E  E  E  E  E  E  E  E   
-----2---------------------||--------4-----------------|-----1-------------------|-----------0--3--1--0--1--|
-----3---------------------||--5-----------------2-----|--------------0----------|--------0-----------------|
-----2-----0--1--0--------*||-----4-----------2--------|-----------0-------2--1--|-----0--------------------|
--------4-----------4--3--*||-----6-----6-----2--------|--------3----------------|--------------------2-----|
--2-----------------0------||--4--------------------0--|-------------------0--2--|--3-----------0-----------|
---------------------------||--------------2-----------|--1-----------3----------|--------------------------|


           >                                                                                  >               
  E  E  E  E   E   E  E  E     E  E  E  E  E  E  E  E     E  E  E  E  E  E  E  E     E  E  E  E  E  E  E  E   
-----5----------------7--5--|-----------0--------------|-----5--------------------|-----------0--3--1--0--1--|
-------------------3--------|--------0-----8--6--5--6--|-----6--------0-----------|--------0-----------------|
--------2--3---4------0-----|-----0--------------5-----|-----5-----------3--2--1--|-----0--------------------|
--0-----------(3)-----------|-----------------7--------|--------7--8--------------|-----2--------------------|
-----------0----------------|--------------0-----------|--5-----------------2-----|--1--------1--1-----------|
---------------3------------|--0-----------------------|--------------3-----------|--------------------------|


                                                                                                     >  >   
  E  E  E  E  E  E  E  E     E  E  E  E  E  E  E  E     E  E  E  E  E  E  E  E     E  E  E  E  E  E  E  E   
-----------------------0--|--------------0-----------|--------------------------|--------0-----------4-----|
-----------1--6--5--------|-----------1-----3--1--3--|--------------3--2--0--2--|-----------------5-----4--|
--------2-----4-----7-----|--------0-----------------|-----------2--------1-----|-----1-----------4-----3--|
-----3--------------------|-----2--------------------|-----0--3--------4--------|-----2-----0-----6-----5--|
--0-----------------------|--------------------------|--------------------------|--0-----------4-----------|
--------------4-----------|--3-----------2-----------|--1-----------0-----------|--------------------------|


        >  >        >  >           >  >     >  >           >  >  >     >  >                 >               
  E  E  E  E  E  E  E  E     E  E  E  E  E  E  E  E     E  E  E  E  E  E  E  E     E  E  E  E  E  E  E  E   
-----2--------------------|--------------0-----------|-----2--------------4--2--|--------------0-----------|
--3-----------------7-----|-----------2-----3--2--3--|-----3-----------0--1-----|-----------2-----3--2--3--|
--2--------2-----5--------|--------1-----------1-----|-----2-----0--1-----1-----|--------1-----------1-----|
--4-----4-----------------|-----2--------------------|--------4-----------------|-----2-----2--------------|
--2-----------------------|--0-----------4-----------|--2-----------------------|--0-----------4-----------|
--------------0--------4--|--------------------------|--------------0-----------|--------------------------|


                 >  >                 >                    >  >  >     >  >  >                              
  E  E  E  E  E  E  E  E     E  E  E  E  E  E  E  E     E  E  E  E  E  E  E  E     E  E  E  E  E  E  E  E   
-----2--------------------|--------------0-----------|-----2--------------4--2--|--------4-----------------|
-----3--------------------|-----------2-----3--2--3--|-----3-----------0--1-----|--5-----------------2-----|
-----2-----0--1--0--------|--------1-----------1-----|-----2-----0--1-----1-----|-----4-----------2--------|
--------4-----------4--3--|-----2-----2--------------|--------4-----------------|-----6-----6-----2--------|
--2-----------------------|--0-----------4-----------|--2-----------------------|--4--------------------0--|
--------------0--------4--|--------------------------|--------------0-----------|--------------2-----------|


  E  E  E  E  E  E  E  E     E  E  E  E  E  E  E  E     E  E   E  E  E  E  E  E     E  E  E  E  E  E  E  E   
-----5--------4--3--2--0--|-----------0--4--------0--|-----9------0--------------|-----------0--4--------0--|
--------------------------|-----------------8--7-----|--7-----10--------3--------|-----------------8--7-----|
--------5--8--5-----------|--------6-----------6-----|--7---------------2-----6--|--------6-----------6-----|
-----7--------6-----------|-----6--------------------|--0------------0-----------|-----6--------------------|
--6-----------------------|--4-----------------------|---------------------------|--4-----------------------|
--------------------4-----|--------------4-----------|---------------------------|--------------4-----------|


                                                   >                                                       
  E  E   E  E  E  E  E  E     E  E  E  E  E  E  E  E     E  Q    E  E.  E.  E     E  E  E  E  E  E  E  E   
-----9------0--------------|--------------0-----------|------------------------|-----------0--------------|
--7-----10--------3-----2--|-----------2-----3--2--3--|-------------3---2------|--------2--------------2--|
--7---------------2--------|--------4-----------------|----------2----------2--|-----1--------------1-----|
--0------------0-----------|-----4-----------------0--|-----3------------------|--2--------------2--------|
---------------------------|--------------------------|------------------------|--------------------------|
---------------------------|--3-----------3-----------|--1---------------------|--0-----------------------|


                                                        >                                   >               
  E  E  E  E  E  E  E  E     E  E  E  E  E  E  E  E     E  E  E  E  E  E  E  E     E  E  E  E  E  E  E  E   
--------2-----------------|--------4-----------------|-----2--------------------|--------------0-----------|
-----------3-----------3--|-----------5-----------5--|--------------1-----------|-----------2-----3--2--3--|
--------2-----------2-----|--------4-----------4-----|--2--------0-----1--0-----|--------1-----------1-----|
-----4-----------4--------|-----6-----------6--------|--4-----4--------------4--|-----2-----2--------------|
--------------------------|--------------------------|--------------------------|--0-----------4-----------|
--0-----------------------|--0-----------------------|--0-----------------------|--------------------------|


     >  >  >     >                                       
                             |--3--|  |-3|               
  E  E  E  E  E  E  E  E     E  E  E  E  Q    H          
-----2--------------4--2--|--0-----------0-------------||
-----3-----------0--1-----|-----------2----------------||
-----2-----0--1-----1-----|--------4-------------------||
--------4-----------------|-----4----------------------||
--2-----------------------|----------------------------||
--------------0-----------|--3-------------------------||   fine....
 


Login or Register to remove this ad.