Ads

Mirai he no Kouseki (Aria the Origination) Guitar Tab

Submitted: Aug 06, 2016 by tomorning

5
Average: 5 (3 votes)
Download | Listen
Game: Aria the Origination
Composer(s): Choro Club, Takeshi Senoo, Mina Kubota
Style: Arrangement, Fingerstyle, Natural harmonics

This song is also called Wake to the Future

AutoScroll: Slow | Medium | Fast
2016/08/02
                               Miraieno kouseki
                                (未来への航跡)
                     ~ from anime "ARIA The ORIGINATION" ~

Music by Takeshi Senoo (妹尾 武)
arranged by to*morning


4th = Eb (E,A,Eb,G,B,E)

      >                        >                      >                                             
      E  E  E  E  Q.     E     E  E  Q    H           E  E  E  E  Q.     E     E  E  Q    H         
E ||------------------------|--------2-------------|-----2--4--5---------5--|--5--7--4-------------|
B ||-----5--7--9--0---------|----------------------|-----0--------0---------|-----0--5-------------|
G ||---------------------1--|--2----------2--------|--------------2---------|-------------4--------|
D#||-----3--5---------------|--------3-------------|--0---------------------|----------------------|
A ||------------------------|-----4----------------|------------------------|--5-------------------|
E ||--0---------------------|--0-------------------|------------------------|----------------------|


  >                             >                                                                          
  E  E   E   E   Q     E  E     E  E  Q    E  E  Q       E  E  Q    E  E  Q       E  E  E  E  E  E  E  E   
-----------------9-----------|--7-----5---------------|--4----------------0----|--0-----4--2--0-----------|
-----9--10--12------------9--|-------------------6----|--------7---------------|-----4-----------4--2--0--|
--------10------------10-----|-----6----------4-------|-----6----------6-------|--4-----------------------|
-----------------------------|--3----------5----------|--6----------7----------|--------------------------|
----------------11-----------|------------------------|------------------------|--------------------------|
--9--------------------------|------------------------|------------------------|--------------------------|


  >                        >                      >                                             
  E  E  E  E  Q.     E     E  E  Q    H           E  E  E  E  Q.     E     E  E  Q    H         
------------------------|--------2-------------|-----2--4--5---------5--|--5--7--4-------------|
-----5--7--9--0---------|----------------------|-----0--------0---------|-----0--5-------------|
---------------------1--|--2----------2--------|--------------2---------|-------------4--------|
-----3--5---------------|--------3-------------|--0---------------------|----------------------|
------------------------|-----4----------------|------------------------|--5-------------------|
--0---------------------|--0-------------------|------------------------|----------------------|


  >                              >                     NH                                                        
  E  E   E   E   Q     E   E     E   E   Q     Q       E  E     E  E  E  E  E  E  E  E     E  E  E  E  H         
-----------------9------------|--7------------12-------0--2--|--4--------5--2-----------|--0--------------------|
-----9--10--12------------12--|---------10----12-------------|--------0--------------5--|-----------------------|
--------10------------10------|---------------10-------------|--------------------2-----|--------2-----1--------|
------------------------------|-----10---------9-------------|-----5-----------3--------|-----------3--1--------|
----------------11------------|--9-------------------<12>----|--------------2-----------|-----2-----------------|
--9---------------------------|------------------------------|--7-----------------------|--0--------------------|


  ^                >        >                       >                >        >                       
  E  E  E  E  Q    E  E     E  E  Q    Q    Q       E  E  E  E  Q    E  E     E  E  E  E  E  E  Q     
-----0--2--4-------------|--------2--------------|-----2--4--5----------5--|--5--7--4-----0----------|
--0-----0-----0----------|-------------2---------|--------0-----0----------|-----0--5--0-----0-------|
--1-----1-----1-------1--|--2----------2----2----|--------------2----------|-------------------------|
-------------------------|--------3---------3----|--0----------------0-----|--------------------5----|
-------------------------|-----4-----------------|-------------------------|--5----------------------|
--0----------------0-----|--0--------------------|-------------------------|-------------------------|


  >           >              >            >                          >             >                        
  E  E  E  E  E  E  E  E     E   E   Q    E   E   Q       E  E  Q    E  E  Q       E  E  E  E  E  E  E  E   
-----4--5--7--9-----------|--7-------5-----------------|--4-----2----------0----|--0-----4--2--0-----------|
-----------------------9--|-----(5)---------------6----|-----2------------------|-----4-----------4--2--0--|
--------4-----------7-----|------6-----------(4)-------|-----2----------0-------|--------2-----6-----2-----|
-----5-----------5--------|-------------------2--------|----------------1-------|--------------------------|
--4-----------------------|--0-------------------------|--0----------1----------|--2-----------------------|
--------------7-----------|---------------4------------|------------------------|--------------------------|


  >                 >        >                          >                 >        >                       
  E  E  E  E  E  E  E  E     E  E  E  E  E  E  E  E     E  E  E  E  E  E  E  E     E  E  E  E  E  E  Q     
-----0--2--4--------------|--------2-----------------|-----2--4--5-----------5--|--5--7--4-----0----------|
--------0-----0-----------|--------------2-----------|--------0-----0-----------|-----0--5--0-----0-------|
-----1-----------1-----1--|--2--------2-----2--------|-----------------2--------|-------------------------|
--------------------------|--------3-----------3-----|--0-----------------0-----|--------------------5----|
--------------------------|-----4-----------------4--|--------------------------|--5----------------------|
--0-----------------0-----|--0-----------------------|--------------------------|-------------------------|


  >           >                                    NH       >           >              >                     
  E  E  E  E  E  E  E  E     E   E   Q     Q       E  E     E  E  E  E  E  E  E  E     E  E  E  E  H         
-----4--5--7--9-----------|--7------------12-------0--2--|--4--------5--2-----------|--0--------------------|
-----------------------9--|---------10----12-------------|--------0--------------5--|-----------------------|
--------4-----------7-----|---------------10-------------|--------------------2-----|--------2-----1--------|
-----5-----------5--------|-----10---------9-------------|-----5-----------3--------|-----------3--1--------|
--4-----------------------|--9-------------------<12>----|--------------2-----------|-----2-----------------|
--------------7-----------|------------------------------|--7-----------------------|--0--------------------|


  E  E  E  E  E  E  E  E     E  E  E  E  E  E  Q       E  E  E  E  E  E  E  E     E  E  E  E  E  E  Q     
--------------4--------7--|--7-----5----------------|-----------------------5--|--5-----4----------------|
-----------5-----5--------|--------------7----------|-----------4--7-----------|-------------------------|
--------6-----------------|-----6-----6-----6-------|--------5-----------5-----|--------4-----6----------|
-----5--------------5-----|--3-----------------3----|-----3-----------6--------|-----5-----5-----5-------|
--4-----------------------|-------------------------|--------------------------|--4-----------------2----|
--------------------------|-------------------------|--4-----------8-----------|-------------------------|


  E  E  E  E   E  E   E   E     E  E  E  E  E  E  E  E     E  E  E  E  Q    E  E     E  E  Q    E  E  Q     
-----------5---9---------11--|--8-----------7-----5--4--|--4--2--1--2--5----------|-------------4----------|
--------5-----10-----10------|--------7--9--------6-----|----------------------2--|--4---------------------|
-----6------------8----------|-----5-----------4--------|--------2----------2-----|--------5----------5----|
-----------------------------|--5-----------------------|--3-----------0----------|-----3----------3-------|
--0--------------------------|--------------4-----------|-------------------------|------------------------|
-----------------------------|--------------------------|-------------------------|--4---------------------|


  E  E  E  E  E  E  E  E     E  E  E  E  E  E  Q       E  E  E  E  E  E  E  E     E  E  E  E  E  E  Q     
--------------4--------7--|--7-----5----------------|-----------------------5--|--5-----4----------------|
-----------5-----5--------|--------------7----------|-----------4--7-----------|-------------------------|
--------6-----------------|-----6-----6-----6-------|--------5-----------5-----|--------4-----6----------|
-----5--------------5-----|--3-----------------3----|-----3-----------6--------|-----5-----5-----5-------|
--4-----------------------|-------------------------|--------------------------|--4-----------------2----|
--------------------------|-------------------------|--4-----------8-----------|-------------------------|


  E  E  E  E   E  E   E   E     E  E  Q    E  E  E  E     E  E  E  E   E  E   E  E     E  E  E  E   E   E  Q     
-----------5---9---------11--|--7-------------4--5--7--|--7--5--4--5--12---------0--|--2------------------------|
--------5-----10-----10------|--------7----------6-----|----------------------------|-----------2---4-----------|
-----6------------8----------|-----5----------4--------|----------------------------|--------2-----(4)-----2----|
-----------------------------|--5----------------------|--3-----6------------10-----|-----3-------------3-------|
--0--------------------------|-------------4-----------|------------------9---------|--2------------------------|
-----------------------------|-------------------------|---------------8------------|---------------------------|


                             >                                                                             
  E  E  E  E  E  E  E  E     E  E  E  E  E  E  E  E     E  E  E  E  E  E  E  E     E  E  E  E  E  E  Q     
-----0--2--4--------------|--------2-----------------|-----2--4--5-----------5--|--5--7--4-----0----------|
--------0-----0-----------|--------------2-----------|--------0-----0-----------|-----0--5--0-----0-------|
-----1-----------1-----1--|--2--------2-----2--------|-----------------2--------|-------------------------|
--------------------------|--------3-----------3-----|--0-----------------0-----|--------------------5----|
--------------------------|-----4-----------------4--|--------------------------|--5----------------------|
--0-----------------0-----|--0-----------------------|--------------------------|-------------------------|


  >           >              >           >                          >              >                        
  E  E  E  E  E  E  E  E     E  E  E  E  E  E  E  E     E  E  E  E  E  E  E  E     E  E  E  E  E  E  E  E   
-----4--5--7--9-----------|--7-----5-----------------|--4-----2-----------0-----|--0-----4--2--0-----------|
-----------------------9--|--------5-----------6-----|--------2-----------------|-----4--------2--4--2--0--|
--------4-----------7-----|-----6-----6--------4-----|-----2-----2--------0-----|--------2--------4--2--1--|
-----5-----------5--------|-----------------2-----2--|-----------------1-----1--|-----3--------------------|
--4-----------------------|--0-----------------------|--0-----------1-----------|--2-----------------------|
--------------7-----------|--------------4-----------|--------------------------|--------------------------|


  >                 >        >                                                                             
  E  E  E  E  E  E  E  E     E  E  E  E  E  E  E  E     E  E  E  E  E  E  E  E     E  E  E  E  E  E  Q     
-----0--2--4--------------|--------2-----------------|-----2--4--5-----------5--|--5--7--4-----0----------|
--------0-----0-----------|--------------2-----------|--------0-----0-----------|-----0--5--0-----0-------|
-----1-----------1-----1--|--2--------2-----2--------|-----------------2--------|-------------------------|
--------------------------|--------3-----------3-----|--0-----------------0-----|--------------------5----|
--------------------------|-----4-----------------4--|--------------------------|--5----------------------|
--0-----------------0-----|--0-----------------------|--------------------------|-------------------------|


  >           >                                    NH                                                       
  E  E  E  E  E  E  E  E     E   E   Q     Q       E  E     E  E  E  E  E  E  E  E     E  E  Q    H         
-----4--5--7--9-----------|--7------------12-------0--2--|--4--------5--2-----------|--0-------------------|
-----------------------9--|---------10----12-------------|--------0--------------5--|----------------------|
--------4-----------7-----|---------------10-------------|--------------------2-----|--2----------1--------|
-----5-----------5--------|-----10---------9-------------|-----5-----------3--------|--------3-------------|
--4-----------------------|--9-------------------<12>----|--------------2-----------|-----2-------2--------|
--------------7-----------|------------------------------|--7-----------------------|--0-------------------|


                                 NH              NH                                                                 <      
  E  E  E  E   Q     E  E        E   E   Q       Q    E  E     E  E  E  E  E  E  E  E     E  E  E  E  E  E  Q       Q         
-----4--5--7---9-----------|-------------------<12>---0--2--|--4--------5--2-----------|--0-----------------0----|-------||
--0---------------------9--|----12------10-----<12>---------|--------0--------------5--|--------------0----------|-------||
--7-----------11----10-----|--------11----------10----------|--------------------2-----|-----------2-----2-------|--1----||
--------------10-----8-----|--------------------------------|-----5-----------3--------|--------1----------------|--1----||
---------------------------|---<12>-------------------------|--------------2-----------|-----2-------------------|-------||
---------------------------|--------------------------------|--7-----------------------|--0----------------------|--0----||  fine...

Login or Register to remove this ad.

1 comment on Mirai he no Kouseki

Wonderful! Favorited!

Wonderful! Favorited!