Ads

Lumis Eterne (Aria the Origination) Guitar Tab

Submitted: Nov 24, 2013 by tomorning

5
Average: 5 (7 votes)
Download | Listen
Game: Aria the Origination
Composer(s): Choro Club, Takeshi Senoo, Mina Kubota
Style: Arrangement, Fingerstyle

AutoScroll: Slow | Medium | Fast
                                    Lumis Eterne
                                 (ルーミス・エテルネ)
                          ~ from anime "ARIA The ORIGINATION" ~


Music by Mina Kubota (窪田ミナ)
Arranged by to*morning

Half up (F,A#,D#,G#,C,F)  or Capo 1 
** original key Eb

Q=92

 3/4

|---------2--|-3------|-------2-----|-2----|
|-------2----|-3------|-----5---5---|-3----|
|-----2------|-4------|---3-------3-|-2----|
|---4--------|--------|-0-----------|-0----|
|-5----------|-5------|-------------|------|
|------------|--------|-------------|------|



|---------2-5-|-5----3--|-------2-----|------||
|-------2-----|-3-------|-----5---5---|-3----||
|-----2-------|-4-------|---3-------3-|------||
|---4---------|---------|-0-----------|-4----||
|-5-----------|-5-------|-------------|-5----||
|-------------|---------|-------------|------||



|-2-------|-0--------|-0--------|---------|
|---------|-------3--|-------3--|-3-------|
|----2----|----1-----|----0-----|---------|
|-0-------|-0--------|-0--------|----4----|
|---------|----------|----------|-5-------|
|---------|----------|----------|---------|



|-2-----5-3-|-3-----2--|-0-----2---|---------|
|-----------|----------|----3----3-|-3-------|
|----2------|----0-----|----0------|---------|
|-0---------|-0--------|-0---------|----4----|
|-----------|----------|-----------|-5-------|
|-----------|----------|-----------|---------|



|-5---5--5--|-5---3--2--|-0------3-2-|-2-------2---|
|-----3-----|-----0-----|------------|-------3-----|
|---2-------|---0-------|-----2------|-----2-------|
|-----------|-----------|---2--------|---4---------|
|-----------|-----------|-0----------|-2-----------|
|-2---------|-3---------|------------|-------------|



|--------2--|-0---------|-----------|------|
|-----3-----|-----0---3-|-3---2--3--|-3----|
|---2-------|---0-------|-----0-----|------|
|-----------|-----------|---2-------|-5----|
|-----------|-----------|-0---------|-5----|
|-2---------|-3---------|-----------|------|



|----------|-0--------|----------|----0--5---||
|-------3--|-0-----2--|-3--------|-2---------||
|----2--2--|-0--0-----|----------|-2---------||
|-4--4-----|-0--------|-4--------|-----------||
|-5--------|----------|----0-----|-----------||
|----------|----------|-------3--|-2---------||



|-7----------|-5---3---2--|-3----------|-----3--2---|
|---------7--|-------0----|-------0----|-----2------|
|-------7----|-----0------|-----0---0--|---0--------|
|-----7------|---2--------|---0--------|-2----------|
|---9--------|------------|------------|------------|
|-7----------|-0----------|-3----------|------------|



|-0-------2---|-2-------2--|---------0--|------------|
|-----3-----2-|-3-----3----|-------0----|-----3--2---|
|---3---4-3---|-----2------|-----2------|-----4------|
|-4---6-------|---4--------|---4--------|---4--------|
|-------------|-2----------|-0----------|------------|
|-------------|------------|------------|-4----------|



|-------7--|--9------------|-5-----2--|-7-----5---|
|----7--7--|--9--------12--|----2-----|----0------|
|-7--7-----|-10----10------|----2-----|----0------|
|-9--------|----11---------|----------|-----------|
|----------|---------------|----------|-------6---|
|-7--------|--9------------|-2--------|-7--9------|


                       rit.........................
|-3------2--|-0-------|-0-----------|------------||
|-----0-----|-0-------|-3-----2-----|-0-----2----||
|---0-------|-0-------|-0---0---0---|-2---2-3----||
|--------4--|-0-------|-2-2-------2-|-5-5--------||
|-7---------|------1--|-0-----------|-0----------||
|-----------|---------|-------------|------------||


a tempo
|-2-------|-0--------|-0--------|---------|
|----3----|-------3--|-------3--|-3-------|
|----2----|----4-----|----4-----|----2----|
|-0-------|----6-----|----5-----|----4----|
|---------|-5--------|-5--------|-5-------|
|---------|----------|----------|---------|



|-2-----5-3-|-3-----2--|-0-----2---|---------|
|----3------|----0-----|----3----3-|-3-------|
|----2------|----0-----|----4------|----2----|
|-0---------|-0--------|-0---------|----4----|
|-----------|----------|-----------|-5-------|
|-----------|----------|-----------|---------|



|-------------|-----0---3--|-2--3--5--|-8----7---|
|-----3---2---|-3----------|----------|-7--------|
|-----------2-|-------0----|-2--------|-8--------|
|---4---4-----|---2--------|----------|-7--------|
|-2-----------|-1----------|-0--------|----------|
|-------------|------------|----------|-7--------|



|-5------------|---------2--|----3--2--|-0-------2---||
|-----(3)-0-3--|-3-----3----|-0--------|-------2-----||
|------0-------|-----0------|-0--------|-----0-------||
|---2----------|---4--------|-0--------|---2---------||
|--------------|------------|----------|-0-----------||
|-0------------|-0----------|-3--------|-------------||



|-------2-----|-------3-----|-------2-----|-------0------|
|-3-------2---|-----3---3---|-----5---5---|-----3---3----|
|-----2-----2-|---4-------4-|---3-------3-|---2-------2--|
|---4---------|-0-----------|-0-----------|-0------------|
|-5-----------|-------------|-------------|--------------|
|-------------|-------------|-------------|--------------|



|-------0---5-|-0-----2-----|-------2----|------||
|-----3-------|---3-----3---|-----5---5--|-3----||
|---2-----2---|-----4-----4-|---3--------|-2----||
|-0-----------|-0-----------|-0----------|-0----||
|-------------|-------------|------------|------||
|-------------|-------------|------------|------||



|-2----------|-0----------|-0----------|-------------|
|---3-3-3-3--|---------3--|---------3--|-3-----------|
|---2-2-2-2--|-----4------|---4-4-4-4--|-----0---2---|
|-0----------|---6---6----|---5-5-5-5--|---4---4-----|
|------------|-5----------|-5----------|-5-----------|
|------------|------------|------------|-------------|



|-2-------5-3-|-3-------2--|-0-------2---|-------------|
|---3-3-3-3---|-----0------|-----3---3-3-|-3-----------|
|---2-2-2-2---|---0---0----|---4-4-4-4---|-----0h2-----|
|-0-----------|-0----------|-0-----------|---4-----4---|
|-------------|------------|-------------|-5-----------|
|-------------|------------|-------------|-------------|



|-5---5---5--|-5---3---2--|-0-------3--|-2-------2---|
|-----3------|-------0----|-------3----|-------3-----|
|---2---2----|-----2------|-----2------|-----2-------|
|------------|---0--------|---2--------|---4---------|
|------------|------------|-0----------|-2-----------|
|-2----------|-3----------|------------|-------------|



|--------2--|-0-----------|------------|---------2---|
|-----3-----|-----0-----3-|-3---2---3--|-3-----2-----|
|-----2-----|-----0---0---|-----0------|-----2-------|
|---0-------|---2---0-----|---2---2----|---4---------|
|-----------|-------------|-0----------|-5-----------|
|-2---------|-3-----------|------------|-------------|



|-0---------|-------0----|----------|----0--5---|
|-3---3--0--|-----3------|-3--------|-2---------|
|-0-0-------|---2-----0--|----------|-2---------|
|-0---------|-0----------|-4-----2--|-----------|
|-----------|------------|----0-----|-----------|
|-----------|------------|----------|-2---------|



|-7----------|-5---3---2--|-3----------|-----3---2---|
|---------7--|-----0---0--|-------0----|-------0-----|
|-----8---8--|---0---0----|---0-----0--|-----0-------|
|---9---9----|-2----------|-----7------|---2---------|
|-6----------|------------|-5----------|-4-----------|
|------------|------------|------------|-------------|



|-0-------2---|-2-------2--|---------0--|------------|
|-----3-----2-|-3-----3----|-------0----|-----3--2---|
|---3---4-----|-----2------|-----2------|-----4------|
|-------------|---4--------|---4--------|---4--------|
|---------1---|-2----------|-0----------|------------|
|-2---4-------|------------|------------|-4----------|



|---------7--|--9----------|-5-----2--|-7-----5---|
|-----7------|--9------12--|----2-----|----0------|
|-7-----7----|-10----------|----2-----|----0------|
|---9--------|-----11------|----------|-----------|
|------------|-------------|----------|-------6---|
|-7----------|--9----------|-2--------|-7--9------|



|-3------2--|-0-------|-0----------|-------------|
|-----0-----|-0-------|-3-------3--|-2-------2---|
|---0-------|-0-------|-0---0------|-0---0-------|
|--------4--|-0-------|-2-2---2----|-2-2---2-----|
|-7---------|------1--|-0----------|-0-----------|
|-----------|---------|------------|-------------|



|-2----------|-0----------|-0----------|-------------|
|---3-3-3-3--|---------3--|---------3--|-3-----------|
|---2-2-2-2--|-----4------|---4-4-4-4--|-----0---2---|
|-0----------|---6---6----|---5-5-5-5--|---4---4-----|
|------------|-5----------|-5----------|-5-----------|
|------------|------------|------------|-------------|



|-2-------5-3-|-3-------2--|-0-------2---|-------------|
|---3-3-3-3---|-----0------|-----3---3-3-|-3-----------|
|---2-2-2-2---|---0---0----|---4-4-4-4---|-----0h2-----|
|-0-----------|-0----------|-0-----------|---4-----4---|
|-------------|------------|-------------|-5-----------|
|-------------|------------|-------------|-------------|



|-------------|-----0---3--|-2--3--5--|-8----7---|
|-----3---2---|-3----------|----------|-7--------|
|-----------2-|-------0----|-2--------|-8--------|
|---4---4-----|---2--------|----------|-7--------|
|-2-----------|-1----------|-0--------|----------|
|-------------|------------|----------|-7--------|



|-5------------|---------2--|----3--2--|-0-------2---|
|-----(3)-0-3--|-3-----3----|-0--------|-------2-----|
|------0-------|-----0------|-0--------|-----0-------|
|---2----------|---4--------|-0--------|---2---------|
|--------------|------------|----------|-0-----------|
|-0------------|-0----------|-3--------|-------------|



|------------|------------|------------|------|
|-3-------3--|-2-------2--|-1-------0--|------|
|-----2------|-----0------|-----0------|-2----|
|---4---4----|---2---2----|---2---2----|-2----|
|-2----------|-1----------|-0----------|------|
|------------|------------|---------3--|-2----|


                                 fermete
|----------|----3--7--|-7------|-5-------*|
|----0--1--|-3--------|-5------|-5-------*|
|-2--------|----------|-5------|-2-------*|
|----------|----------|--------|---------*|
|----------|----------|-0------|-0-------*|
|-1--------|-0--------|--------|---------*| fine.

Login or Register to remove this ad.

2 comments on Lumis Eterne

Thank you, Thank you very

5

Thank you, Thank you very much.
You're officially my favorite tabbers in this site now.

seconded

he/she is my fav as well because of Aria

Don't know how long I've waited for someone to do Aria, or any of Junichi Sato's works in general (just couldn't wait for Mackytube)