Ads

Bourou (Aria the Origination) Guitar Tab

Submitted: Nov 08, 2013 by tomorning (Last updated: Nov 17, 2013)

5
Average: 5 (5 votes)
Download | Listen
Game: Aria the Origination
Composer(s): Choro Club, Takeshi Senoo, Mina Kubota
Style: Arrangement, Fingerstyle, Natural harmonics

AutoScroll: Slow | Medium | Fast
                                        Bourou
                                        (望楼)
                          ~ from anime "ARIA The ORIGINATION" ~


Music by Takeshi Senoo (妹尾武)
Arranged by to*morning

Standard Tuning
  Q=62


m = upper mordent

 4/4
|--------------||--------------|-----------------|-0--------------|
|--------1h3-1-||-0------------|-0-------0---0-3-|-0--------5h7---|
|--------------||-----0-----2--|-0-----0---0-----|-0--0-----------|
|------0-------||---2----1-----|-----4-----------|-2-----4--------|
|--------------||-3------2-----|---2-------------|-3-----5--------|
|--------------||--------------|-0---------------|----------------|




|-0---------------|-0---------3-2m--|----------------|---------0-------|
|-----3-----0-1-3-|-0-----0-------2-|-3----------3-1-|-0-----0---0-1-3-|
|-------0---------|-0---0---3-------|--------1-------|-----0-----------|
|---0-------------|-2-2-------------|-----3--2-0-----|-----2-----------|
|-2---------------|-4---------------|---3------------|---3-------------|
|---------3-------|---------2-------|-1------0-------|-5---------------|



            accel---In Tempo
|-------3-2---10-8-|-7---3--2-----|-7-------7---7-10--|-12----------14----|
|-4---1------------|-----0--4--4--|-------0---8-------|------8---7--------|
|-0-2-------7------|---0----4--4--|-----0-------------|----0--------------|
|-0----------------|--------------|---4---------------|----------0--------|
|------------------|-3------2-----|-------------------|-------------------|
|------------------|--------------|-0-----------------|--8----------------|




|-<12>-----------------10-7-8-10--|-12---------15-14-----|-10----------10-8--|-7---3----------||
|-----------------<12>------------|------------------14--|-------------------|-----0--1--4----||
|------------<12>-----------------|------9--15-----------|------7----7-------|--------0-------||
|-------<12>----------------------|----9-----------------|----7--------------|---2----0-------||
|---------------------------------|----------------------|--8----------------|-0--------------||
|---7-----------------------------|--9------14-----------|---------0---------|----------------||




|-3-------3--------|-0-------3-2m--|---------1-0m--|---------------|
|-0-----0---0-1-3--|-0--0--------2-|-5--3--------0-|-3--1----1-0---|
|-----2------------|-0-----3-------|-2-----1-------|-0-------------|
|---0--------------|-2-----4-------|-4-----2-------|-------0-----4-|
|------------------|-4-------------|-2-------------|-0-----2-------|
|-3----------------|---------------|---------------|---------------|




|---------0--------|-0----------3-2-0--|----------1------0--|-----------0-3-5-|
|-------0---0-1-3--|-0-----0-1---------|-5-3-2-3--1---------|-0-----3-2-------|
|-2---0------------|-0---0---3---------|-2---2--------3-----|-0---0---0-------|
|-----2------------|-2-2---------------|---4---4----3-------|---2-------------|
|---2--------------|-4-----------------|-2--------1---------|-0---------------|
|-0-------3--------|---------2---------|--------------------|-----------------|



                                            fermete
|-7-----------------------------|-----------10-------||
|-----------<7>-----------------|-10-----10------3-1-||
|-------<7>--------------<12>---|------7-------------||
|---<7>-------------<12>--------|----7---------0-----||
|-5-----------------------------|--------------------||
|---------------<7>-------------|-10-----------------||




|------------------|-----------------|-0--------2---|-0------------------|
|-0----------------|-0-------0---0-3-|-0------------|-----3--------0-1-3-|
|------0------2----|-0-----0---0-----|-0--0-----2---|-------0------------|
|---2------1-------|-----4-----------|-2-----4------|---0----------------|
|-3--------2-------|---2-------------|-3-----5------|-2------------------|
|------------------|-0---------------|--------------|----------3---------|




|-0---------3-2m---|----------------|--------------|-----------7-8-10--|
|-0-----0-------2--|-3----------3-1-|-0------------|-------0-3---------|
|-0---0---3--------|-2---2--1-------|-----0-----2--|-0---2---0---------|
|-2-2--------------|-4-4----2-0-----|-----2--1--1--|---0---------------|
|-4----------------|-2--------------|---3----0--3--|-2-----------------|
|---------2--------|--------0-------|-5------------|-3-----------------|




|-12---------15-14----|-10---------10-8---|-7-----------------------7-8-10-|-11---------||
|-12------11-------14-|-------------------|-------------<12>---------------|-10----7----||
|-12------11----------|------7---7--------|--------<12>--------------------|--0---------||
|-----11--------------|----7--------------|---<12>-------------------------|------------||
|---------------------|--8----------------|-0------------------------------|------------||
|---------------------|--------0----------|--------------------------------|------------||




                                                               rit.................    fermete
|-3-------------------|-0-----------------|-0-----------------|-----------------|-8----------||
|------3---------3----|-------3---------3-|-------1-------1-3-|-5-------5-----5-|------------||
|-----0---------0-----|-----0---------0---|-----1-------1-----|-------5-----5---|-------9----||
|---3---------3-------|---4---------4-----|---0---------------|-----5-----5-----|------10----||
|---------------------|-------------------|-------------------|---7-------------|------------||
|-1-------------------|-0-----------------|-1-----------------|-8---------------|-------8----||fine...
Login or Register to remove this ad.

2 comments on Bourou

I like it !

5

Btw Music by Takeshi Senoo it's not a correct credit coz here : http://en.wikipedia.org/wiki/List_of_Aria_soundtracks#Aria_the_Originati...
After a click [Show], I can read music composer of this track is : Ou Akioka.
The arranger is Choro Club probably including Takeshi Senoo (he was music director of the Aria soundtracks)...
Anyway It sounds cute ! ^^

Pretty cool sounding, some

5

Pretty cool sounding, some interesting phrasing and chord changes