Amaretto no Natsu (Aria the Origination) Guitar Tab

Submitted: Oct 08, 2016 by tomorning

5
Average: 5 (1 vote)
Download | Listen
Game: Aria the Origination
Composer(s): Choro Club, Takeshi Senoo, Mina Kubota
Style: Arrangement, Artificial harmonics, Fingerstyle

AutoScroll: Slow | Medium | Fast
2016/10/04
                               Amaretto no natsu
                                (アマレットの夏)
                     ~ from anime "ARIA The ORIGINATION" ~

Music by Takeshi Senoo (妹尾 武)
arranged by to*morning

Normal Tuning

Allegreto (Q=108)
   2/4           4/4 
                          >                                                                                           
     Q    Q        Q.     E  E  Q    E     E  E  Q     Q     Q       E  E  E  E  E  Q    E     E  E  E  E  Q    Q     
E||------------||--3--------------------|--------1-----3-----4----|-------------------------|-------------------1----|
B||------------||---------3-----3----3--|--------3-----3----------|--4----------------------|--------3-----4---------|
G||-------0----||---------0-----0----0--|-----1-------------------|--------1--------1----1--|-----------1--1---------|
D||------------||---------1-----1----1--|-------------(3)---------|-----3-----3-----3----3--|-----3------------------|
A||------------||--3---------3----------|--2-----------2----------|--1-----------1----------|--1-----------1---------|
E||------------||-----------------------|-------------------------|-------------------------|------------------------|


  E  Q    E  E  Q    E     E  E  Q    Q.     E     Q    E  E  E  Q    E     E  E  E  E  E  E  Q     
------------------------|-----------------------|----------0-------------|-------------------------|
--3---------------------|-------------3------4--|--1---------------------|-----------1--------1----|
-----5----5-----5----5--|--------5----5---------|-------0--------0-------|--------1--------1-------|
-----5----4-----4----4--|-----3-----------------|---------------------3--|-----1-----------1-------|
--0----------0----------|-----------------------|------------------------|-------------------------|
------------------------|--4----------4---------|--3----------3----------|--2-----------2----------|


  Q     Q    E   Q     E     E  E   E   E  Q    Q        Q    E   E  E   Q     E     E  E  E  E  Q    Q     
--8-----------------------|----------------8----9----|----------------------------|-------------------6----|
--------9--------9-----9--|--------11----------------|---9------------------------|--------8-----9---------|
--------8--------8-----8--|------------10------------|---8----8----------8-----8--|-----------6--6---------|
-------10-------10----10--|-----8----------8---------|--10-------10-----10----10--|-----8--------8---------|
--8----------8------------|--8-------------8---------|---8-----------8------------|--8-----------8---------|
--------------------------|--------------------------|----------------------------|------------------------|


                     >                                                                                   
  Q    E  E  E  Q    E      E   E  Q    E  E  Q       Q    E  E  E  Q    E     E  E  E  E  E   E   Q     
--1---------------------|--------------------------|------------------------|---------------------------||
----------------1-------|----------4----0-----1----|--3-------1-----1----0--|---------------------------||
----------1----------0--|--(2)-----2----------2----|-------2--------2----1--|--------1--3-----(1)--0----||
-------1----------------|-------1----------1-------|----------------3----3--|-----3---------------------||
------------------------|--------------------------|------------------------|---------------------------||
--1----------1----------|---2-----------2----------|--3----------3----------|--3------------------------||


         >                                                                                              
                                     |----3----|                                                        
  Q.     E  E  Q    E     E  E  Q    Q    Q    Q       E  E  E  E  E  Q    E     E  E  E  E  Q    Q     
--3--------------------|--------1---------3----4----|-------------------------|-------------------1----|
---------3-----3----3--|--------3---------3---------|--4----------------------|--------3-----4---------|
---------0-----0----0--|-----1----------------------|--------1--------1----1--|-----------1--1---------|
---------1-----1----1--|----------------------------|-----3-----3-----3----3--|-----3------------------|
--3---------3----------|--2----------2--------------|--1-----------1----------|--1-----------1---------|
-----------------------|----------------------------|-------------------------|------------------------|


  Q.      E   E  Q    E     E  E  Q    Q.     E     Q    E  E  E  Q    E     E  E  E  E  E  E  Q     
-------------------------|-----------------------|----------0-------------|-------------------------|
--3----------------------|-------------3------4--|--1---------------------|-----------1--------1----|
--5------(5)-----5----5--|--------5----5---------|-------0--------0-------|--------1--------1-------|
--5-------5------4----4--|-----3-----------------|---------------------3--|-----1-----------1-------|
--0-----------0----------|-----------------------|------------------------|-------------------------|
-------------------------|--4----------4---------|--3----------3----------|--2-----------2----------|


  Q     Q    E   Q     E     E  E   E   E  Q.     E      Q    E   E  E   Q     E     E  E  E  E  Q    Q     
--8-----------------------|----------------8------9--|----------------------------|-------------------6----|
--------9--------9-----9--|--------11----------------|---9------------------------|--------8-----9---------|
--------8--------8-----8--|------------10------------|---8----8----------8-----8--|-----------6--6---------|
-------10-------10----10--|-----8----------8---------|--10-------10-----10----10--|-----8--------8---------|
--8----------8------------|--8-------------8---------|---8-----------8------------|--8-----------8---------|
--------------------------|--------------------------|----------------------------|------------------------|


                      >                                                                         
  Q    E  E  E  E  E  E     E  E  E  E  Q    Q       E  E  E  E  Q    Q       W                 
--1----------------------|--------------3---------|------------------------|-------------------|
-------------------4-----|--4-----3----------0----|--3--------3-------4----|--1----------------|
----------1-----2--------|-----------4------------|--------0---------------|--0----------------|
-------1--------1-----0--|-----3------------------|-----3------------------|--1----------------|
-------------------------|------------------------|--3---------------------|--3----------------|
--1----------2-----------|--3---------------------|------------------------|-------------------|


    AH        AH        AH               AH                                                                     
    Q.        Q.        Q                Q.       Q    Q        E  E  E  E  E  Q    E     E  E  E  E   Q     Q     
-------------------------------|----------------------------||--3----------------------|--------1------3-----4----|
-------------------------------|----------------------------||-----------3-----3----3--|--------3------3----------|
---<0>(19)---<0>(12)-----------|-----------------------0----||--------0--------0----0--|-----1-----1--------------|
----------------------<0>(12)--|------------------0---------||-----1-----------1----1--|--------------(3)---------|
-------------------------------|--------<0>(12)-------------||--3-----------3----------|--2------------2----------|
-------------------------------|----------------------------||-------------------------|--------------------------|


  E  E  E  E  E  Q    E     E  E  E  E  Q    Q       E  Q    E  E  Q    E     E  E  Q    Q    S  E.   
-------------------------|-------------------1----|------------------------|-------------------------|
--4----------------------|--------3-----4---------|--3---------------------|-------------3----3s-4---|
--------1--------1----1--|-----------1--1---------|-----5----5-----5----5--|--------5----5-----------|
-----3-----3-----3----3--|-----3------------------|-----5----4-----4----4--|-----3-------------------|
--1-----------1----------|--1-----------1---------|--0----------0----------|-------------------------|
-------------------------|------------------------|------------------------|--4----------4-----------|


  Q    E  E  E  Q    E     E  E  E  E  E  E  Q       Q     E  E  E   Q     E     E  E   E   E  Q    Q     
------------------------|-------------------------|--8------------------------|----------------8----9----|
--1-------1-------------|-----------1--------1----|-----------9------9-----9--|--------11----------------|
-------0--------0-------|--------1--------1-------|-----------8------8-----8--|------------10------------|
--3-------------2----1--|-----1-----------1-------|-------10--------10----10--|-----8----------8---------|
------------------------|-------------------------|--8-----------8------------|--8-------------8---------|
--3----------3----------|--2-----------2----------|---------------------------|--------------------------|


                                                                           >                              
   Q    E   E  E   Q     E     E  E  E  E  Q    Q       Q    E  E  E  Q    E      E   E  Q    E  E  Q     
----------------------------|-------------------6----|------------------------|--------------------------|
---9------------------------|--------8-----9---------|--6---------------------|----------4----0-----1----|
---8----8----------8-----8--|-----------6--6---------|----------8-----8----0--|--(2)-----2----------2----|
--10-------10-----10----10--|-----8--------8---------|-------6--------6-------|-------1----------1-------|
---8-----------8------------|--8-----------8---------|--8----------8----------|--------------------------|
----------------------------|------------------------|------------------------|---2-----------2----------|


  Q    E  E  E  Q    E     E  E  E  E  E   E   Q        E  E  E  E  E  Q    E     E  E  Q     Q     Q     
------------------------|---------------------------||--3----------------------|--------1-----3-----4----|
--3-------1-----1----0--|---------------------------||--------3--------3----3--|--------3-----3----------|
-------2--------2----1--|--------1--3-----(1)--0----||--------0--------0----0--|-----1-------------------|
----------------3----3--|-----3---------------------||-----1-----1-----1----1--|-------------(3)---------|
------------------------|---------------------------||--3-----------3----------|--2-----------2----------|
--3----------3----------|--3------------------------||-------------------------|-------------------------|


  Q.     E  E  Q    E     E  E  E  E  E  E  Q       Q.     E  E  Q    E     E  E  Q    Q    S  E.   
-----------------------|--------------------1----|-----------------------|-------------------------|
--4--------------------|--------3-----4----------|--3--------------------|-------------3----3s-4---|
---------1-----1----1--|-------------------------|--5------5-----5----5--|--------5----5-----------|
---------3-----3----3--|-----3-----3-----3-------|--5------4-----4----4--|-----3-------------------|
--1---------1----------|--1-----------1----------|--0---------0----------|-------------------------|
-----------------------|-------------------------|-----------------------|--4----------4-----------|


  Q    E  E  E  Q    E     E  E  E  E  E  E  Q       Q     Q    E   Q     E     E  E   E   E  Q      Q     
------------------------|-------------------------|--8-----------------------|----------------8----8g9----|
--1-------1-------------|-----------1--------1----|--------9--------9-----9--|--------11------------------|
-------0--------0-------|--------1--------1-------|--------8--------8-----8--|------------10--------------|
--3-------------2----1--|-----1-----------1-------|-------10-------10----10--|-----8----------8-----------|
------------------------|-------------------------|--8----------8------------|--8-------------8-----------|
--3----------3----------|--2-----------2----------|--------------------------|----------------------------|


                                                                            >                          
   Q    E   E  E   Q     E     E  E  E  E  Q    Q       Q    E  E  E  E  E  E     Q    Q    Q    Q     
----------------------------|-------------------6----|--1----------------------|------------3---------|
---9------------------------|--------8-----9---------|-------------------4-----|--4----3----4----0----|
---8----8----------8-----8--|-----------6--6---------|----------1-----2--------|--4---------0---------|
--10-------10-----10----10--|-----8--------8---------|-------1--------1-----0--|--3-------------------|
---8-----------8------------|--8-----------8---------|-------------------------|----------------------|
----------------------------|------------------------|--1----------2-----------|--3-------------------|


                                                   2/4 (Half Time feel)
                                       *)          Tempo rubato                                         
  E  E  E  E  Q    Q       E  E  E  E  Q    E  E      E            E  E  E     E  E  E  E     E  E  E  E   
------------------------|-------------------------||--3---------------------|-----1--3--4--|--------------|
--3--------3-------4----|--1-----------1----------||--1------------------1--|--------------|--4--------2--|
--------0---------------|--------0-------------0--||------------------0-----|--3-----------|--------1-----|
-----3------------------|-----1-----1-------------||---------------0--------|--------------|-----3--------|
--3---------------------|--3----------------------||------------------------|--2-----------|--1-----------|
------------------------|-------------------------||------------------------|--------------|--------------|


  E  E  E  E     E  E  E  E     E  E  E  E     E  E  E  E  
--------------|--------------|--------------|--------------|
-----3--4--6--|--3-----3-----|--------3--4--|--1--------3--|
--3-----------|--------5-----|-----5--------|--------0-----|
--5-----------|-----5-----4--|--3-----------|-----3--------|
--------------|--0-----------|--------------|--3-----------|
--------------|--------------|--4-----------|--------------|

                                 AH       AH
  E  E  Q       E  E  E  E       E        Q          Q      
--1----------|--0--------0--|------------<3>(15)--|---------||
--------3----|--------3-----|---<1>(13)-----------|---------||
-----0-------|-----0--------|---------------------|---------||
-------------|--------------|---------------------|---------||
-------------|--3-----------|---------------------|---------||
-------------|--------------|---------------------|---------||  fine...

Login or Register to remove this ad.

1 comment on Amaretto no Natsu

Favorited, I love it =)

5

Favorited, I love it =)