Ads

Natsu no Yousei -guitar solo- (Aria the Natural) Guitar Tab

Submitted: Mar 29, 2014 by tomorning

5
Average: 5 (3 votes)
Download | Listen
Game: Aria the Natural
Composer(s): Choro Club, Takeshi Senoo, Mina Kubota
Style: Arrangement, Fingerstyle, Transcription

AutoScroll: Slow | Medium | Fast
                                  Natsu no Yousei
                             (夏の妖精 -guitar solo-)
                          ~ from anime "ARIA The NATURAL" ~

Music / arranged by Shigeharu Sasago (笹子重治)
reference arr "ARIA The Box , Natsu no Yousei -guitar solo-"
trranscription and arranged by to*morning


 4/4
  Q = 114

E|--3-5-7-5p3p0---|--------------3-|----------------|--------------|
B|----------------|---5--x---3-5---|---5--3---5-3-0-|--------------|
G|--------------2-|---5--x---5-----|---4--4---4-----|---2--2---2-2-|
D|----------------|----------------|---3--3---3-----|---2--2---2-2-|
A|----------------|-5------5-------|----------------|-3------------|
E|----------------|----------------|-3------3-------|--------3-----|


                                                          To Coda
|---3-5-7-5p3p0---|--------------3-|------------3-5-|-6------------||
|-----------------|---5--x---3-5---|---5--3---5-----|---6--6---6-6-||
|---------------2-|---5--x---5-----|---4--4---4-----|---7--7---5-5-||
|-----------------|----------------|---3--3---3-----|-5------0-----||
|-3---------------|-5------5-------|----------------|--------------||
|-----------------|----------------|-3------3-------|--------------||


|---8-10-12-10p8------|--------------------8-|
|---8------------10-8-|-10------10---10-12---|
|---9-----------------|-------9------------9-|
|---8-----------------|----10----------------|
|---------------------|--8---------8---------|
|-8-------------------|----------------------|


|---8--7---------|-----------------|
|----------10--8-|-------8---------|
|---9--8-------7-|-----7-----7---6-|
|-----------7--8-|---8-------8---5-|
|-9--------------|-7-----------x---|
|--------7-------|---------6-------|


|-----5-6-5-------|-------------3-|----------------|--------------||
|---8-------8-5---|---5--3---5----|---5--3---5-3-0-|--------------||
|-----------------|---5--5---5----|---4--4---4-----|-2---2---2--2-||
|---------------7-|---------------|---3--3---3-----|-2---2---2--2-||
|-0---------------|-5------5------|----------------|-3------------||
|-----------------|---------------|-3------3-------|-------3------||


|--3-5-7-5p3p0---|--------------3-|----------------|---------------|
|----------------|---5-(3)--3-5---|---5--3---5-3-0-|---------------|
|--------------2-|---5------5-----|---4--4---4-----|---2--2---2--2-|
|----------------|----------------|---3--3---3-----|---2--2---2--2-|
|----------------|-5------5-------|----------------|-3-------------|
|----------------|----------------|-3------3-------|--------3------|


|---3-5-7-5p3p0---|--------------3-|------------3-5-|-6-----6---6------|
|-----------------|---5--x---3-5---|---5--3---5-----|-----6------------|
|---------------2-|---5--x---5-----|---4--4---4-----|---7-------7-7.---|
|-----------------|----------------|---3--3---3-----|-5-------0-----5.-|
|-3---------------|-5------5-------|----------------|------------------|
|-----------------|----------------|-3------3-------|------------------|


|---8-10-12-10p8------|--------------------8-|
|---8------------10-8-|-10------10---10-12---|
|---9---------------9-|-------9------------9-|
|---8---------------8-|----10----------------|
|---------------------|--8---------8---------|
|-8-----------------8-|----------------------|


|---8---7----------|-----------------|
|-----------10---8-|-------8---------|
|---9-x-8--------7-|-----7-----7---6-|
|------------7-x-8-|---8-------8---5-|
|-9----------------|-7-----------x---|
|---------7--------|---------6-------|


|-----5-6-5-------|--------------3-|----------------|------0-------0-|
|---8-------8-5---|---5------3h5---|---5--3---5-3-0-|--1h3---3-1-3---|
|-----------------|---5------5-----|---4--4---4-----|--2-------2-----|
|---------------7-|----------------|---3--3---3-----|----------------|
|-0---------------|-5----5-5-------|----------------|----------------|
|-----------------|----------------|-3------3-------|--3-------3-----|


|------------7-8-10--|------7-8---------|-------3---5-7---|-0-1-2-3--3-----|
|-10------10---8-----|-8-10---8-------6-|-------4---------|----------------|
|-------9------7-----|--------9---9---3-|-------4-------x-|-0-2-3-4--4-----|
|----10--------------|-9--------7---x-5-|---5-x-----------|--------------5-|
|--8---------8-------|-7----------------|-5---------------|------------0---|
|--------------------|------------------|---------3-------|----------------|


      PM|
|-7-4-------0--3-|-8-7--5---5-----|---0-------5-7s10-|
|-----0-----0--0-|-5----5---5---3-|-------7----------|
|-7-----1---1----|-5----5---5-x-5-|-------5----------|
|---------2------|--------------4-|-----5-7----------|
|----------------|-0------0-------|-5----------------|
|----------------|----------------|------------------|

   
                                    D.C.
|-7-6-5.-4.-3-2-1-0-|-------5---------||
|-------------------|-4-------4-------||
|-7-6-5.-4.-3-2-1-0-|-4---------4-----||
|-------------------|-3---3-------3---||
|-------------------|-----------------||
|-------------------|-3---------------||


  &
|---8-10-12-10p8------|--------------------8-|
|---8------------10-8-|-10------10---10-12---|
|---9-----------------|-------9------------9-|
|---8-----------------|----10----------------|
|---------------------|--8---------8---------|
|-8-------------------|----------------------|


|---8---7----------|-----------------|
|-----------10---8-|-------8---------|
|---9-x-8--------7-|-----7-----7---6-|
|------------7-x-8-|---8-------8---5-|
|-9----------------|-7-----------x---|
|---------7--------|---------6-------|


|-----5-6-5-------|--------------3-|----------------||
|---8-------8-5---|---5------3h5---|---5--3---5-3-0-||
|-----------------|---5------5-----|---4--4---4-----||
|---------------7-|----------------|---3--3---3-----||
|-0---------------|-5----5-5-------|----------------||
|-----------------|----------------|-3------3-------||


|---------------|---------------|---------------|----------------|
|------3---3--3-|---1--1---1--1-|---3--3---3--3-|---1--1---1-----|
|---2--2---2--2-|---0--0---0--0-|---2--2---2--2-|---0--0---0-----|
|---2--2---2--2-|---------------|---2--2---2--2-|----------------|
|-3-------------|-1-------------|-3-------------|-1----------0-1-|
|--------3------|--------1------|--------3------|--------1-------|

                                                  rall.............
|-----0--------0-|---------------|---------------|-------0--------|
|---3---3---3----|---1--1---1--1-|---3--3---3--3-|-----1-------1--|
|---4-------2----|---0--0---0--0-|---2--2---2--2-|---0-------0----|
|---2-------2----|---------------|---2--2---2--2-|----------------|
|-3--------------|-1-------------|-3-------------|-1--------------|
|---------3------|--------1------|--------3------|---------1------|


            fermete
|------------2----*|
|------------4----*|
|------------4----*|
|-----------------*|
|-----------------*|
|-1-2-3-----------*|fine.
Login or Register to remove this ad.

2 comments on Natsu no Yousei -guitar solo-

Wow, Thank you for

Wow, Thank you for introducing me to this Music. I may go buy a classic guitar to enjoy these tabs to their fullest.

I feel happy as long as

I feel happy as long as you're having a good time.
perhaps, you get used to playin chro (bossa) style. gl.

Barden Powell site
( http://www.brazil-on-guitar.de/home.html )
This site (Tabs) might be helpful to your parctice.
in addition... standard Choro (jazz age 1910~ ) and bossa songs.