Ads

Kagaribi no Nocturne (Aria the Natural) Guitar Tab

Submitted: Nov 16, 2013 by tomorning (Last updated: Nov 17, 2013)

5
Average: 5 (4 votes)
Download | Listen
Game: Aria the Natural
Composer(s): Choro Club, Takeshi Senoo, Mina Kubota
Style: Arrangement, Fingerstyle, Natural harmonics

AutoScroll: Slow | Medium | Fast
                                  Kagaribi no Nocturne
                                  (篝火のノクターン)
                          ~ from anime "ARIA The NATURAL" ~


Music by Takeshi Senoo (妹尾武)
Arranged by to*morning

Standard Tuning

  Q=84

 3/4

|--------7-|--8---10-8----|----------|-0-------|
|-----10---|-----------12-|-10----8--|-0-----0-|
|----------|--9-----------|--7-------|-5-------|
|----------|-10-----------|--9-------|-2--2----|
|----------|--8-----------|-10-------|-0-------|
|----------|--------------|----------|---------|


|---------7-|--8---10-8----|----------|-0-------3---|
|------10---|-----------12-|-10----8--|-----0---3---|
|-5---------|--9-----------|--7-------|-5-----5-----|
|-----------|-10-----------|--9-------|---2---------|
|-----------|--8-----------|-10-------|-0-----------|
|-----------|--------------|----------|-------------|


|-0-------7-|--8---10-8----|----------|-12------15---|
|-1----10---|-----------12-|-10----8--|-12-----------|
|-2---------|--9-----------|--7-------|-----12-------|
|-----------|-10-----------|--9-------|-10-----------|
|-----------|--8-----------|-10-------|--------------|
|-----------|--------------|----------|--------------|


|-10----------|-------12--|-10---------|-5---------3-|-0---------||
|-10----13-12-|-10--------|-----12---8-|-----0---3---|-1------0--||
|-11----------|-10--------|-12---------|-------5-----|-2----2----||
|-------------|-----------|------------|---2---------|-----------||
|-------------|-----------|------------|-0-----------|-----------||
|-------------|-----------|------------|-------------|-----------||


|-------------|-----------|-----------3-|-0--------|
|-1-----3-1-0-|-------0---|-----0---3---|-1------0-|
|-----0-2-----|-2-------0-|-------5-----|------2---|
|-------------|-----5-----|-2-----------|----------|
|---3---------|---5-------|---0---------|----------|
|-1-----------|-3---------|-------------|----------|


|-------------|------------|-----------3-|-0-----------|
|-1-----3-1-0-|-------0----|-----0---3---|---3-1----0--|
|-----0-2-----|-2-------0--|-------5-0---|--------2----|
|-------------|-----5------|-2-----------|-2------2----|
|---3---------|---5--------|---0---------|-------------|
|-1-----------|-3----------|-------------|-------------|


|-------------|------------|-0-------3--|--------------|
|-1-----3-1-0-|-------0----|-----0---3--|-3-------1-0--|
|-----0-2-----|-2-------0--|-------5----|-2-----2------|
|-------------|-----5------|------------|-----0--------|
|---3---------|---5--------|---0--------|--------------|
|-1-----------|-3----------|------------|---2----------|


|---------0--|-------------|-------------|----0--3--||
|---------1--|-3---0-------|---------0-3-|-1--------||
|-2-----2----|-----0-2-----|-2---0-2-----|----------||
|-----3------|---0-------5-|---2---------|----------||
|---3--------|-------------|-0-----------|----------||
|-1----------|-3-----------|-------------|----------||


|-5-----3-5-7-|-5------3--|-0---------3-|----0--3---|
|-----5-------|-----3-----|-------0-3---|-3---------|
|---5---------|---4-------|-----0-------|-----------|
|-3-----------|-5---------|---2---------|-----------|
|-------------|-----------|-3-----------|-----------|
|-------------|-----------|-------------|-----------|


|-5-----3-5-7-|-5-------3---|-0-----------|----3--0---|
|-----5-------|-3---------3-|-------3-0---|-----------|
|---5---------|---4---------|-----0-----0-|-----------|
|-3-----------|-----5---5---|---2---------|----0--2---|
|-------------|-------5-----|-3-----------|-3---------|
|-------------|-------------|-------------|-----------|


|-------------|---------7-12--|-------------|-----------|
|-3-----1-3-5-|------10-------|-3-----1-3-5-|-----------|
|-----2-------|---10----------|-----2-------|-2-----0---|
|---0---------|-7-------------|---0---------|----2------|
|-------------|---------------|-------------|-----------|
|-2-----------|---------------|-1-----------|-----------|


|-------------|-5-2---------|----------|-----0--------|
|-----------3-|-3---3-------|----------|---1----------|
|-2-----0-2---|-2-----2-----|----------|--------------|
|-----4-------|-4-------4---|----------|-------0------|
|---2---------|-2---------2-|------0-2-|-3-------3-2--|
|-0-----------|-------------|-0--------|--------------|


|---------3--|-----------3-|-0--------|-----0--------|
|-------3----|-----0---3---|-1--------|---1----------|
|-----4------|-------5-----|-2--------|--------------|
|---5--------|---2---------|----------|-------0------|
|-0----------|-------------|------0-2-|-3-------3-2--|
|---------3--|-0-----------|----------|--------------|


|---------3--|-----------3-|-0----------|--------------|
|-------3----|-------1-----|---3-1----0-|-1-----3-1-0--|
|-----4------|-----4-------|--------2---|-----0--------|
|---5--------|---2---------|-2------2---|-3------------|
|-0----------|-------------|------------|---3----------|
|---------3--|-0-------3---|------------|--------------|


|---------3--|-12----------15----|-10--------------|-------------12---|
|-----0-3----|-------12-------12-|-------10--13-12-|-10-------10------|
|-2----------|----12----12-------|-11--------------|-------10---------|
|---0--------|-10----------------|----12-----------|----10------------|
|------------|-------------------|-----------------|------------------|
|-3----------|-------------------|-----------------|-13---------------|


|-10--------------|-----------3-7-|-5-0--------||-7-5-7-0---3--|
|-----<12>--------|-----0---3-----|-----1---0--||-5-------3----|
|-----------<12>--|-------5-------|-------2----||-5-------2----|
|-----------------|-<7>-----------|------------||--------------|
|-----------------|---------------|------------||-0------------|
|-----------------|---------------|------------||--------------|


|-0-------3--|-7-5-7-0---3-|-0--------|--7----7--------|
|-------1----|-5-------3---|----------|--7-10-------8--|
|-----4------|-5-------2---|-----2----|--9------9-7----|
|---2--------|-------------|---2------|-10--------7----|
|-0----------|-0-----------|-0--------|--0-------------|
|------------|-------------|----------|----------------|


|-0-------7--|----------------|-----------------|-7-5-7-0---3--|
|-------5-5--|-12-10-12-----8-|---------<12>----|-5-------3----|
|-----7------|--9-------9-7---|---------<12>----|--------------|
|---5--------|-10---------7---|---------<12>----|--------------|
|-0----------|--0-------------|-<7>-------------|-0---0--------|
|------------|----------------|-----<7>---------|-0---0--------|


|-0--------|-7-5-7-0---3-|-0-------|-7-5-7-0---3--|
|-------1--|---------3---|---------|-5-------3----|
|----4-----|-5---5-------|----2----|--------------|
|----2-----|-3---3-------|-3--3----|--------------|
|-0--0-----|-0---0-------|-0--0----|-0---0--------|
|-0--0-----|-------------|---------|-0---0--------|


|-0--------|-7-5-7-0-----|-0-----------|------*|
|-------1--|-----------8-|-----3-------|-1----*|
|----4-----|-5-------7---|---2---0---2-|-4----*|
|----2-----|-3-------7---|---------2---|-2----*|
|-0--0-----|-0-----------|-0-----------|-0----*|
|-0--0-----|-------------|-------------|------*|
Login or Register to remove this ad.

3 comments on Kagaribi no Nocturne

I don't know this tune at all

I don't know this tune at all nevertheless it sounds nice. The tone u choose is not my preference coz' after trying to transpose +2 semitone higher, it appears a very comfortable finger-step :

                                                               II
     H        E  E     E  E  E  E  E  E     E  E  E  E  Q       E  E  E  E  E  E     H        E  E   
E||-----------------|-----------0--------|-------------------|-----------------5--|--2--------------|
B||-----------0--2--|--3--------0--3--2--|--0--------2-------|--------2--3--5-----|--3--------0--2--|
G||-----------------|--------2-----------|--------2-----2----|--------------------|-----------------|
D||-----------------|-----0--------------|-----2-------------|--4-----------------|-----------------|
A||-----------------|--------------------|--0----------------|-----2--------------|-----------------|
E||-----------------|--3-----------------|-------------------|--------------------|-----------------|


                                           II
  E  E  E  E  E  E     E  E  E  E  Q       E  E  E  E  E  E     E  E  Q    E  E     E  E  E  E  E  E   
-----------0--------|-------------------|-----------------5--|--2--0-------------|-----------0--------|
--3--------0--3--2--|--0--------2-------|--------2--3--5-----|--------3----0--2--|--3--------0--3--2--|
--------2-----------|--------2-----2----|--------------2-----|-------------------|--------2-----------|
-----0--------------|-----2-------------|--4-----------------|--4----------4-----|-----0--------------|
--------------------|--0----------------|-----2--------------|-------------------|--------------------|
--3-----------------|-------------------|--------------------|-------------------|--3-----------------|

                     II
  E  E  E  E  Q       E  E  E  E  Q       E  E  E  E  E  E     E  E  E  E  Q       E  E  E  E   E  E   
-------------------|--2-----------0----|--0-----------------|--------------2----|--0------------------|
--0--------2-------|--------2--3-------|--0--------0--3--2--|--0--L-----0--3----|--------2--0h--L-----|
--------2-----2----|-------------------|--------------------|--------0----------|--------2---------2--|
-----2-------------|-------------------|--------2-----------|-----0-------------|-----2---------------|
--0----------------|-----2-------------|--------------------|-------------------|--0------------------|
-------------------|-------------------|-----4--------------|--3----------------|---------------------|


  E  E  E  E  E  E     Q    Q    Q       E  E  E  E  E  E     E  E  Q    Q       E  E  E  E  E  E   
-----------------0--|-------2----5----|--7-----L--5--7--9--|--7----------5----|--2-----------0--5--|
--0--------0--2-----|--3----L---------|--------7-----------|--------5---------|-----------2--------|
--------2-----------|-----------------|--0--7--------------|-----7------------|--------2-----------|
-----4--------------|-----------------|--------------------|--7---------------|--0--4--------------|
--2-----------------|-----------------|--------------------|------------------|--------------------|
--------------------|-----------------|--------------------|------------------|--------------------|

etc...

So I'm just asking if it'll be possible to rearrange all the rest like that. Any idea ?  

here, my melody memo It will

here, my melody memo
It will be a help you.

Wow Excellent ! I m finally

Wow Excellent ! I m finally happy I can play this one, this ost sounds great ^^
Well now every guitarist nearby - "hight skill" or "low skill" - will be satisfied with your tabs :D
Many thanks !