Ads

Itsuka Kita Michi (Aria the Natural) Guitar Tab

Submitted: Feb 24, 2014 by tomorning

5
Average: 5 (4 votes)
Download | Listen
Game: Aria the Natural
Composer(s): Choro Club, Takeshi Senoo, Mina Kubota
Style: Arrangement, Fingerstyle

AutoScroll: Slow | Medium | Fast
                                 Itsuka Kita Michi
                                  (いつか来た道)
                          ~ from anime "ARIA The NATURAL" ~

Music by Takeshi Senoo / 妹尾武
allanged by to*morning


 (Standard Tuning, EADGBE)


 3/4

E|------0---||------------|-----------|--------|------|
B|--------3-||o-2---0-2h3-|-0-----0h2-|--------|------|
G|----2-----||------------|-----2-----|-2------|------|
D|----------||--2---------|-2---------|-0------|-4----|
A|----------||o-0---------|-----------|--------|-5----|
E|----------||------------|-4---------|-3------|-2----|


                          1.
|-------------|----------|----------|-0-----0-----||
|-------0h1-3-|-0--------|----0-----|---------3--o||
|---0-2-------|-------0--|-------6--|-------------||
|-------------|----0-----|-2--------|-----2-------||
|-------------|----------|-0--------|------------o||
|-1-----------|-3--------|----------|-------------||


  2.
|----------|-------0---||
|----------|-2-------3-||
|-2-----4--|-----------||
|----2-----|-----2-----||
|-0--------|-----------||
|----------|-----------||


||--------------|-------------|---------0--|------------|
||o-2-----0-2h3-|-0-------0h2-|-----0------|-3-------0--|
||------2-------|-----1S2-----|-2-----2----|-----2------|
||----2---------|---2---------|---0--------|---0---0----|
||o-0-----------|-------------|------------|------------|
||--------------|-4-----------|-3----------|-2----------|


                          1.
|-------------|----------|----------|-0-----0-----||
|-------0h1-3-|-0--------|----0-----|---------3--o||
|---0-2-------|-------0--|-------6--|-------------||
|-----2-------|----0-----|-2--------|-----2-------||
|-------------|----------|-0--------|------------o||
|-1-----------|-3--------|----------|-------------||


  2.
|----------|-----------||
|----------|-2-----2h5-||
|-2-----4--|-----2-----||
|----2-----|-----------||
|-0--------|-----------||
|----------|-----------||


|-5-----4-5s7-|-4-----0-2--|-0-----0----|--------------|
|-----3-------|-----0------|-----0---0--|---------0-2--|
|---2---------|---1--------|---1--------|-2-----2------|
|-0-----------|-0----------|------------|-----4--------|
|-------------|------------|-4----------|---4----------|
|-------------|------------|------------|-2------------|


|-----------2-|-1-----------|-------------|-----------0--|
|-3-----2-3---|-------3-2-0-|-0-----------|-2-------2----|
|-----2-------|-----1-------|-------2-1-2-|-----0-2------|
|---4---------|---0---------|-----4-------|---2----------|
|-2-----------|-------------|---4---------|-0------------|
|-------------|-1-----------|-2-----------|--------------|


|-5-----4-5-7-|-4----------|-0-------0--|--------------|
|-----7-------|---------7--|-------0----|-------2-3-5--|
|---6---------|-------4----|-----0------|-----3--------|
|-------------|-----6------|---0--------|---2-----2----|
|-6-----------|---6--------|------------|--------------|
|-------------|-4----------|-3----------|-2------------|


|-0-----------|------------|-----------|-------0----||
|-----3---1---|-0-----0----|-0---------|---------3--||
|-------2---2-|-----2---2--|--------2--|-1----------||
|---2---------|---2--------|-----2-----|-----2------||
|-------------|------------|---2-------|------------||
|-1-----------|-1----------|-0---------|------------||


|-------------|-------------|-5-----2----|-------0-----|
|-2-----0-2h3-|-0-------0h2-|-----3---3--|-3-------3---|
|-----2-------|-----1h2-----|---2--------|-----2-------|
|---2-----2---|---2-----2---|---------0--|---0-----0---|
|-0-----------|-------------|------------|-------------|
|-------------|-4-----------|-3----------|-2-----------|


|-------------|------------|--------|----------5-7-||
|-------0h1-3-|-0-----0----|--------|--------5-----||
|---0-2-------|-----0---0--|-2------|--------------||
|-----2-------|---0--------|-2------|--------------||
|-------------|------------|-0------|--------------||
|-1-----------|-3----------|--------|--------------||


|--8------8-10-|-7-------|-5--------|-------5-7--|
|-10---12------|------8--|----------|-2---5------|
|--9-----------|-7-------|-------4--|-4----------|
|--------------|-5-------|----2-----|------------|
|--8-----------|---------|-0--------|------------|
|--------------|---------|----------|------------|


|--8------8-10-|-7-------|-12---------|-9-----5-7--|
|-10---12------|------8--|------------|-9---5------|
|--9-----------|-7-------|---------9--|------------|
|--------------|-5-------|-----11-----|------------|
|--8-----------|---------|--0---------|------------|
|--------------|---------|------------|------------|


|-8----------8-10-|-7-------3--|-5------0--|------0-5-7--|
|--------12-------|-----0---3--|-----2--2--|-2-----------|
|------9----------|-----0------|-----4-----|----4--------|
|---10------10----|---0---0----|---2-------|-------------|
|-8---------------|------------|-0---------|-------------|
|-----------------|-3----------|-----------|-------------|


|-8----------8-10-|-7-------3--|-12------------|-------0----||
|--------12-------|-----0---3--|-----------10--|-9-------3--||
|------9----------|-----0------|-------11------|------------||
|---10------10----|---0---0----|----11---------|-----2------||
|-8---------------|------------|---------------|------------||
|-----------------|-3----------|--0------------|------------||


|-------------|-------------|---------2--|-------------|
|-2-----0-2h3-|-0-------0h2-|-----3------|-3-------0---|
|-----2-------|-----1S2-----|-2-----2----|-----2-------|
|---2-----2---|---2-----2---|---0--------|---0---0-----|
|-0-----------|-------------|------------|-------------|
|-------------|-4-----------|-3----------|-2-----------|


|-------------|------------|----------|-0-----0----|
|-------0h1-3-|-0-----0----|----0-----|---------3--|
|---0-2-------|-----0---0--|-------6--|------------|
|-----2-------|---0--------|-2--------|-----2------|
|-------------|------------|-0--------|------------|
|-1-----------|-3----------|----------|------------|


|-------------|-------------|-5---3---2---|-------0-----|
|-2-----0-2h3-|-0-------0h2-|-----0---0---|-3-------3---|
|-----2-------|-----1S2-----|---0---0---0-|-----2-------|
|---2-----2---|---2---------|-------------|---0-----0---|
|-0-----------|-------------|-------------|-------------|
|-------------|-4-----------|-3-----------|-2-----------|

                          rit................fermete
|-------------|---------|-------------|-----------|
|-------0h1-3-|---------|-------0h1-3-|-----------|
|---0-2-------|-2-------|---0-2-------|-2-----0---|
|-----2-------|----2----|-----0-------|----0------|
|-------------|---------|-------------|-----------|
|-1-----------|-1-------|-3-----------|-3---------|


|-----------|-----------|-0------|--------*|
|--------3--|--------3--|-2------|--------*|
|-2---4-----|-----4-----|-4------|--------*|
|---2-------|---2-------|-2------|--------*|
|-0---------|-0---------|-0------|--------*|
|-----------|-----------|--------|--------*|fine
Login or Register to remove this ad.

1 comment on Itsuka Kita Michi

*1) same harmony ,but

*1) Amaj7(9) same harmony ,but diferent overtone sound. 
    Please choose the one you like from these.

|-0--------|   |-0---------|
|-0--------|   |-2---------|
|-6--------|   |-4---------|
|-2--------|   |-2---------|
|-0--------|   |-0---------|
|----------|   |-----------|
*2) interlude easy way.

|---------||--8------8-10-|-7-------|-5--------|-------------|
|---10-12-||-10---12------|------8--|----------|-2-----10-12-|
|-9-------||-(9)----------|-7-------|-------4--|-4---9-------|
|---------||--------------|-5-------|----2-----|-------------|
|---------||--8-----------|---------|-0--------|-------------|
|---------||--------------|---------|----------|-------------|


|--8------8-10-|-7-------|-12---------|-9-----------|
|-10---12------|------8--|------------|-9-----10-12-|
|-(9)----------|-7-------|---------9--|-----9-------|
|--------------|-5-------|-----11-----|-------------|
|--8-----------|---------|--0---------|-------------|
|--------------|---------|------------|-------------|


|-8----------8-10-|-7-------3--|-5------0--|------0-------|
|--------12-------|-----0---3--|-----2--2--|-2------10-12-|
|------9----------|-----0------|-----4-----|----4---------|
|---10------10----|---0---0----|---2-------|--------------|
|-8---------------|------------|-0---------|--------------|
|-----------------|-3----------|-----------|--------------|