Ads

Haru Ichiban (Aria the Natural) Guitar Tab

Submitted: Aug 28, 2017 by tomorning

5
Average: 5 (5 votes)
Download | Listen
Game: Aria the Natural
Composer(s): Choro Club, Takeshi Senoo, Mina Kubota
Style: Arrangement, Fingerstyle

AutoScroll: Slow | Medium | Fast

Aug , 29 / 2017

 
                                              春一番
                                      ( First Storm of Spring )
                             ~ from anime "Aria The NATURAL" ~

Music by Ou Akioka (秋岡 欧)
arranged by to*morning


standard tuning ( E A D G B E )

( Q = 62 )

     >  >  >  >  >  >  >         >   >   >   >   >  >  >  >     >  >  >  >  >  >  >         > > > > > > > > >        >       
                                                                                                                     |--3-|  
     E  E  E  E  E  E  E  S S    S S S S S S S S E  E  E  E     E  E  E  E  E  E  E  S S    S S S S S S S S E  E  E  S S  S  
E||--0--3-----0-----2-------4-|--3-0-1---0----------2--3-----|--0--3-----0-----2-------5-|--4-3-2-1-0-----------------------|
B||--------2-----3--1---------|--------3---1-3-0-1--4--3-----|--------2-----3--1---------|------------4-3-2-1---------------|
G||--------2--------2--2------|------2--------------2--4--0--|--------2--------2--1------|---------------------------0------|
D||--------------0-----0------|--0-----------0------4--5-----|--------------0-----0------|--0------------------6------------|
A||--3-----0------------------|------------------3-----------|--3-----0------------------|------------------3----------0h-2-|
E||---------------------------|----------3-------------------|---------------------------|----------3----------4-----3------|


  >  >  >  >  >  >  >         >   >   >   >   >  >  >        >  >  >  >  >  >  >         > > > > > > > > >  >  >        
  E  E  E  E  E  E  E  S S    S S S S S S S S E  E  E  E     E  E  E  E  E  E  E  S S    S S S S S S S S E  E  S S S S  
--0--3-----0-----2-------4-|--3-0-1---0----------2--3-----|--0--3-----0-----2-------5-|--4-3-2-1-0-------------8-------||
--------2-----3--1---------|--------3---1-3-0-1--4--3-----|--------2-----3--1---------|------------4-3-2-1--8----------||
--------2--------2--2------|------2--------------2--4--0--|--------2--------2--1------|------------------------5-------||
--------------0-----0------|--0-----------0------4--5-----|--------------0-----0------|--0------------------5----------||
--3-----0------------------|------------------3-----------|--3-----0------------------|------------------3-------------||
---------------------------|----------3-------------------|---------------------------|----------3---------------0-1-2-||


  >  > > >  >  >  > > >        >  >  >  > >                >            >  > > >  >                   
                                            |--3-|  |--3-|     |-3-|                                  
  E  S S E  E  E  S S E  E     E  E  E  S S S  S S  S  S S S S S S S    E  S S E  S S S S S S E  S S  
--3--6---------0--3---------|--1--4--------------0-------------------|-----4------3---0-1-3-5-6--5-3-|
-----3---3--6-----1---1-----|-----1--1--4---3h-4----6p-3-----3-4---5-|--6--6------3-6-----3------2---|
-----3-0----------2---2-----|-----1--1--1---3------(3)---3-----------|--5--5---4--4-------3------0---|
------------5-------0-3-----|--------1--3-0-1--------------5---------|--0----0-5---------------------|
---------3------------------|------------------------------6---------|------------------------0------|
--3------------1---------1--|--1-------------------------------------|----------------0--------------|


                            > >          >  >  >  >  >  >  >         >   >   >   >   >  >  >  >   
  |-3-| |-3-|                                                                                     
  S S S S S S S  S S S E  S S S S S S    E  E  E  E  E  E  E  S S    S S S S S S S S E  E  E  E   
--2-3-4-5-2---------------0-----------|--0--3-----0-----2-------4-|--3-0-1---0----------2--3-----|
------------3--------3----------------|--------2-----3--1---------|--------3---1-3-0-1--4--3-----|
--------------5p-2-----5----0-4-------|--------2--------2--2------|------2--------------2--4--0--|
--0----------------4------------------|--------------0-----0------|--0-----------0------4--5-----|
--------------5--------5----------0-2-|--3-----0------------------|------------------3-----------|
------------------------------3-3-----|---------------------------|----------3-------------------|


  >  >  >  >             > >    > > > > > > > > > > > > > > > >    >           >  <        
  E  E  E  E  S S S S E  S S    S S S S S S S S S S S S S S S S    E  Q    E   E  Q.       
--0--3-----0----0-1-3-4--6-5-|--4-3-2-1-0-----------------------|------------------------||
--------2-----3---1---1------|------------4-3-2-1-0-------------|-----------------0------||
--------2-------------1------|----------------------3-2-1-0-----|-----------------5------||
--------------0-------3------|------------------------------4---|-----6----5\-----2------||
--3-----0--------------------|--------------------------------2-|--3-----------3--3------||
-----------------------------|----------------------------------|------------------------||  fine....

Login or Register to remove this ad.