Login or Register to remove this ad.

Coccolo (Aria the Natural) Guitar Tab

Submitted: Jan 09, 2017 by tomorning

5
Average: 5 (3 votes)
Download | Listen
Game: Aria the Natural
Composer(s): Choro Club, Takeshi Senoo, Mina Kubota
Style: Arrangement, Artificial harmonics, Fingerstyle, Natural harmonics

AutoScroll: Slow | Medium | Fast
                                        Kokkoro
                                      (コッコロ)
                            ~ from anime "ARIA The NATURAL" ~

Music by Mina Kubota (窪田ミナ) 
Words by Eri Kawai (河井英里)

arranged by to*morning
*reference (organ ver)

Normal tuning (E,A,D,G,B,E)


Moderato (q = 96)

  4/4

     E  E  E  E  E  E  Q       E  E  Q    Q    Q       E  E  E  E  E  E  E  E     H        H         
E||-------------------------|--2--------------------|--------------------------|--------------------||
B||--------3-----3--2--3----|--------2----3---------|--2-----2-----2--0--0--2--|--3--------0--------||
G||--------2-----4-----0----|--------2----4---------|-----2-----2--2-----------|-----------2--------||
D||--0--4-----4-------------|--4--5------------0----|--4-----------------------|--2-----------------||
A||-------------------------|-----------------------|--------------------------|--------------------||
E||-------------------------|-----------------------|--------------------------|--------------------||


  E  E  E  E  Q    Q       E  E  E  E  Q    Q       E  E  E  E  Q    Q       E  E  Q    Q    Q     
------------------------|--3-----2--0------------|--5--------5--2---------|--3--------------------|
--------3-----3----3----|--------2-----3---------|--------2---------------|--1--0--3----3---------|
--------2-----4----0----|-----2-----2--4----0----|-----2--------4----0----|--------2----4---------|
--0--4-----4------------|--0---------------------|--0---------------------|--0---------------0----|
------------------------|------------------------|------------------------|-----------------------|
------------------------|------------------------|------------------------|-----------------------|

                                                                            2/4

  E  E  Q    Q    Q       E  E  E  E  Q    Q       E  E  E  E  E  E  Q        H         
-----------------------|--3-----2--0------------|--5--------7--3--2--0----||-----------||
--------3----3----3----|--------------3---------|--------5-----0----------||-----------||
--------2----4----0----|--------2-----4---------|-----6-------------------||--2--------||
--0--4-----------------|--4--5-------------0----|--4----------------------||--2--------||
-----------------------|------------------------|-------------------------||-----------||
-----------------------|------------------------|-------------------------||-----------||

4/4

  E  E  Q    E  E  Q       E  E  Q    Q    Q       E  E  E  E  E  E  E  E     E  E  Q    Q    Q     
------------------------|--2--------------------|--------------------------|-----------------------||
--3----------3--2--3----|--------2----3---------|--2-----2-----2--0--0--2--|--3--2-----------------||
--------2----4-----0----|--------2----4---------|-----2-----2--------------|--------4----2---------||
--0--4------------------|--4--5------------0----|--4--------------------0--|--2--------------------||
------------------------|-----------------------|--------------2-----4-----|-------------0---------||
------------------------|-----------------------|--------------------------|-----------------------||


  E  E  Q    E  E  Q       E  E  E  E  Q    Q       E  E  E  E  H           Q    Q    H         
------------------------|--3-----2--0------------|--5--------5--2--------|--3------------------|
--------3----3-----3----|--------------3---------|--------2--------------|-------3----3--------|
--------2----4-----0----|--------2-----4---------|-----2--------2--------|------------2--------|
--0--4-------5--4-------|--4--5-------------0----|--4--------------------|--2------------------|
------------------------|------------------------|-----------------------|---------------------|
------------------------|------------------------|-----------------------|---------------------|

                                                                              2/4

                                                                                   |--3--|        
  E  E  Q    E  E  Q       E  E  E  E  Q    Q       E  E  E  E  E  E  E  E      E  S  S  S E  E   
------------------------|--3-----2--0------------|--5--------7--3--2m-0-----||-------------------||
--------3----3-----3----|--------------3---------|--------5-----0-----------||--2---h-3p-2-0--2--||
--------2----4-----0----|--------2-----4---------|-----6-----------------0--||--2----------------||
--0--4-------5--4-------|--4--5-------------0----|--4-----------------------||--2----------------||
------------------------|------------------------|--------------------------||-------------------||
------------------------|------------------------|--------------------------||-------------------||

4/4

  E  E  Q    Q    Q       E  E  Q    Q    Q       E  E  E  E  E  E  E  E     E  E  Q    H         
-----------------------|--2--------------------|--------------------------|----------------------||
--3----------3----3----|--------2----3---------|--2-----2-----2--0--0--2--|--3--2----------------||
--------2----4----0----|--------2----4---------|-----2-----2--------------|--------4----2--------||
--0--4-----------------|--4--5------------0----|--4--------------------0--|--2-------------------||
-----------------------|-----------------------|--------------2-----4-----|-------------0--------||
-----------------------|-----------------------|--------------------------|----------------------||


  E  E  E  E  E  E  E  E     E  E  Q     E  E  Q       Q     Q     E  E  Q       E  E  E  E  E  E  E  E   
--------5--2--5-----5--2--|--5-----7----------------|-------10~----5----------|--3-----2-----0-----------|
--------2--------3--------|--------7----10----------|-------------------------|--------0-----------------|
-----2--------0-----------|-----6--------------7----|--------------------2----|-----0-----0--------2--0--|
--4-----------------------|-----------------7-------|--0--------------2-------|-----------------2--------|
--------------------------|--0----------------------|-------------------------|--------------0-----------|
--------------------------|--------------7----------|--0-----------2----------|--3-----------------------|


  E  E  E  E  E  E  E  E     E  E  Q     E  E  Q        E   E  E  E  E  E  E  E     Q    E  E  E  E  Q     
--------5--2--5-----5--2--|--5-----7----------------|--10~-----------5-----------|--7----3--2--0-----2----||
--------2-----------3-----|--------7----10----------|----------0-----------2-----|--0---------------------||
-----2-----------2--------|-----6--------------7----|-------0-----0-----2-----2--|--0----------------0----||
--4-----------------------|-----------------7-------|----------------4-----------|--0-------------2-------||
--------------------------|--0----------------------|----------------------------|-------------0----------||
--------------3-----------|--------------7----------|---0------------------------|------------------------||


  E  E  E  E  E  E  Q       E  E  Q    Q    Q       E  E  E  E  E  E  Q       E  E  Q    H         
-------------------------|--2--------------------|-------------------------|----------------------||
--3-----------3--2--3----|--------2----3---------|--2-----2-----2--0--2----|--3--2----------------||
--------2-----4-----0----|--------2----4---------|-----2-----2-------------|--------4----2--------||
--0--4-----4-------------|--4--5------------0----|--4----------------------|--2-------------------||
-------------------------|-----------------------|--------------2-----4----|-------------0--------||
-------------------------|-----------------------|-------------------------|----------------------||


  E  E  E  E  E  E  Q       E  E  E  E  E  E  E  E     E  E  E  E  E  E  E  E     E  E  E  E  E  E  Q     
-------------------------|--3-----2--0-----------0--|--2-----------------------|--5--------7--8-----7----|
--------3-----3-----3----|--------2-----3-----------|--------3-----------3-----|-----------------0-------|
--------2-----------0----|-----2--------------0-----|-----2-----2-----4-----4--|--------7-----0----------|
--0--4-----4--5--4-------|--0-----------5--4--------|--0-----------5-----------|-----7-------------------|
-------------------------|--------------------------|--------------------------|--5----------------------|
-------------------------|--------------------------|--------------------------|-------------------------|


                                                                              NH    NH        
   E  E   E  E  E  E  Q       E  E  E  E   Q     E   E      E   E   E   E     E     E   Q     
---------10-----------0----|--------------------10--12--|--14------10------------------10----|
--10---------7--8--7-------|--------7--8--10------------|------10------10---------<12>-------|
------7---------0----------|-----9---------0------------|-------------------<12>-------------|
---0-----------------------|--0-------------------------|---0--------------------------------|
---------------------------|----------------------------|------------------------------------|
---------------------------|----------------------------|------------------------------------|


                             NH                        NH                  NH    
  E  E  H          Q         H         E  E  Q         E  E  E  E  Q       Q     
--8--7--8---------------|-------------------------|-----------------------------|
--5-----5---------<8>---|---<7>-------------------|-----------------------------|
--7-----5---------------|---<7>-------------------|----------------0------------|
--0---------------------|---<7>-------------------|----------7------------------|
------------------------|-------------10--9--7----|-------9-----9--------<12>---|
------------------------|-------------------------|---10------------------------|


                                                 rit..........................................
    NH   NH   NH   NH    NH    NH    NH    NH      NH   NH   NH   NH   NH   NH   NH   NH  
    E    E    E    E     E     E     E     E       E    E    E    E    E    E    E    E   
----------------------------------<12>--------|---------------------------------<5>------|
-------------<7>-------------<12>-------------|-------------<7>------------<5>-----------|
---<7>------------<7>--<12>-------------------|---<7>-----------------<5>----------------|
----0-----------------------------------------|--------<7>-------<7>-----------------<7>-|
--------<5>------------------------------<12>-|------------------------------------------|
----------------------------------------------|------------------------------------------|


rit........................................................................................................... *)
    NH   NH   NH   NH    NH    NH    NH    NH      NH   NH   NH   NH   NH   NH   NH    NH       NH     NH      NH     
    E    E    E    E     E     E     E     E       E    E    E    E    E    E    E     E        Q      Q       Q        
-----------------------------------<12>-------|---------------------------------<5>-------|---<12>------------------||
-----------------------------<12>-------------|-------------<7>------------<5>------------|---<12>------------------||
---<7>------------<5>--<12>-------------------|---<7>-----------------<5>------------<12>-|-----------<7>-----------||
-------------<5>------------------------------|--------<7>-------<7>----------------------|------------------<12>---||
--------<5>------------------------------<12>-|-------------------------------------------|-----------<5>-----------||
----------------------------------------------|-------------------------------------------|-------------------------|| fine...


Login or Register to remove this ad.