Ads

Aria no Yuuutsu (Aria the Natural) Guitar Tab

Submitted: Aug 26, 2017 by tomorning (Last updated: Aug 28, 2017)

5
Average: 5 (4 votes)
Download | Listen
Game: Aria the Natural
Composer(s): Choro Club, Takeshi Senoo, Mina Kubota
Style: Arrangement, Fingerstyle

AutoScroll: Slow | Medium | Fast

Aug , 27 / 2017

                                      アリアの憂鬱
                                   (Aria's Melancholy)
                           ~ from anime "Aria The NATURAL" ~

Music by Ou Akioka (秋岡 欧)
arranged by to*morning


standard tuning ( E A D G B E )

Andante( Q = 82 )

                                                                          |-3|    |--3--|               
     E  E  E  E     E  E  E  E  E  E  E  E     E  E  E  E  E  E  E  E     E  Q    E  E  E  E  E  E  E   
E||-----0--1--2--|--3--0-----------------0--|--------0--------0--------|-----0----------------------0--|
B||--------------|--1--------------6--------|-----------4--------6--7--|--8-------------------6--------|
G||--------------|--2-----0--1--2-----------|-----5--------------4-----|-------------0--1--2--6--------|
D||--------------|--------------------5-----|--4-----4-----3-----------|--7----------------------------|
A||--------------|--3-----3-----0-----4-----|--5-----5-----4-----4-----|----------3--------0-----4-----|
E||--------------|--------------------------|--------------------------|--8----------------------------|


  E  E  E  E  E  E  E  E     E  E  E  E  E  E  E  E     E  E  E  E  Q    E  E     E  E  E  E  Q    E  E   
-----5--------------------|--0-----------------------|-----5-----3-------------|--0--5-----0-------------|
--------4--3-----1--3--4--|-----1--3--1--4--3--1-----|--------5-------------6--|-------------------------|
--------4--3--------------|--0-----------3--------1--|--0-----5----------6-----|--5--------5-------5-----|
--------------------------|--------------------1-----|-------------------5-----|--4--------4-------4--0--|
--5-----4-----3-----------|--------------------------|--------------0----4-----|--5-----5-----5----------|
--------------------------|--1-----------2-----2-----|--3----------------------|-------------------------|

 
                   |--3--|                                                            |-3|    |--3--|               
  E  E  E  E  Q    E  E  E     E  E  E  E  E   E  E  E     E  E  E  E  E  E  E  E     E  Q    E  E  E  E  E  E  E   
-----4-------------0--1--2--|--3--0------------------0--|--------0--------0--------|-----0----------------------0--|
--4--------4----------------|--0--------------/6--------|-----------4--------6--7--|--8-------------------6--------|
--4--------4----------------|--------0--1--2------------|-----5--------------4-----|-------------0--1--2--6--------|
--3--------3----------------|---------------------5-----|--4-----4-----3-----------|--7----------------------------|
--4-----4-----4-------------|--3-----3-----0------4-----|--5-----5-----4-----4-----|----------3--------0-----4-----|
----------------------------|---------------------------|--------------------------|--8----------------------------|


                                   |--3--|                       |--3--|                                             
  E  E  E  E  E  E  E  E     E  E  E  E  E  E  E  E  E     E  E  E  E  E  E  E  E  E     E  E  S S S S S S E  E  E   
-----5--------------------|--0--------------------------|--0--1-----3--4--5-----------|--------------------0--------|
--------4--3-----1--3--4--|-----1-----3--1--4--3--1--3--|--------------------8-----6--|--5-----------------------0--|
--------4--3--------------|--------2--------3-----------|--------0--------------------|--5-------0-1-2--------------|
--------------------------|--------2--------------1-----|-----------------------7-----|--4-----0--------------0-----|
--5-----4-----3-----------|-----------------------------|-----------------0-----4-----|--5--------------------------|
--------------------------|--1--------------2-----2-----|--3--------------------------|----------------3------------|

 
                                                |--3--|                       |--3--|                       |--3--|   
  E  E  E  E  E  E  E  E      E  E  E  E  E  E  E  E  E     E  E  E  E  E  E  E  E  E     E  E  E  E  E  E  E  E  E   
-----------------3--------||-----------------------------|-----------------------------|-----------------------------|
--3--2-----1--------1-----||--------1--2--3--1-----------|--------1--3--4--------------|-----------------1-----0-----|
--0--1-----2-----------0--||-----3--------3--------0--3--|--2--3--0-----5--7--------5--|--3-----------------------3--|
--------------------------||--------3-----2--------------|--------------4--4-----7-----|--------0--1--2--------------|
--1--------3--------------||--------------3-----3--------|--0-----------5-----5--------|--------1-----3--------------|
--------------------------||--3--------------------------|-----------------------------|--3-----------------3--------|


                                              |--3--|                       |--3--|          |--3--|               
  E  E  E  E  Q    E  E     E  E  E  E  E  E  E  E  E     E  E  E  E  E  E  E  E  E     Q    E  E  E  E  E  E  E   
-------------------------|--------------0--------------|-----------------0-----------|----------------------------|
--------0--1-------------|-----1--3--4-----3--------1--|--------3--5--6--------0--3--|--1----------------0--------|
--2--3-------------2-----|--------------0--------2-----|--4--5--4-----5--------------|----------------------------|
-------------------3--0--|--------2-----------0--------|--3-----3-----5--------------|--0-------2--3--4--------4--|
--------3----------------|--0--------------------------|--------------0-----0--------|----------------5-----5-----|
--1-----------1----------|-----------------------------|--3--------------------------|-------3--------------------|

  
                                                                                     |-3|    |--3--|               
  E  E  E  E  E  E  E  E     E  E  E  E  E  E   E  E      E  E  E  E  E  E  E  E     E  Q    E  E  E  E  E  E  E   
-----------------0--1--2--|--3--0------------------0---|--------0--------0--------|-----0----------------------0--|
--------------------2-----|-----------------6----------|-----------4--------6--7--|--8-------------------6--------|
--2--1-----0--------0-----|--------0--1--2-------------|-----5--------------4-----|-------------0--1--2--6--------|
--0-----0-----------------|---------------------5------|--4-----4-----3-----------|--7----------------------------|
--------------------------|--3-----3-----0------4------|--5-----5-----4-----4-----|----------3--------0-----4-----|
--------------3-----------|----------------------------|--------------------------|--8----------------------------|


  >     >                    >     >        >     >        >              >     >        >     >       >      >      
                                   |--3--|                       |--3--|                                             
  E  E  E  E  E  E  E  E     E  E  E  E  E  E  E  E  E     E  E  E  E  E  E  E  E  E     E  E  S S S S S S E  E  E   
-----5--------------------|--0--------------------------|--0--1-----3--4--5-----------|--------------------0--------|
--------4--3-----1--3--4--|-----1-----3--1--4--3--1--3--|--------------------8-----6--|--5-----------------------0--|
--------4--3--------3-----|--------2--------3-----------|--------0--------------------|--5-------0-1-2--------------|
--------------------2-----|--------2--------------1-----|-----------------------7-----|--4-----0--------------0-----|
--5-----4-----3-----------|-----------------------------|-----------------0-----4-----|--5--------------------------|
--------------------------|--1--------------2-----2-----|--3--------------------------|----------------3------------|


                                        >        >     >           >     >        >     >         
        |--3--|       |--3--|           |--3--|        |--3--|           |--3--|        |--3--|   
  E  E  E  E  E  Q    E  E  E     E  E  E  E  E  E  E  E  E  E     E  E  E  E  E  E  E  E  E  E   
----------------------5--6--7--|--8--5--------------8-----7--5--|--7--0--------------6-----5--0--|
--3--2-----1-------------------|-----------6--5--4--------------|-----------4--3-----------------|
--------------0--3----5--------|-----------------5--------------|-----------------6--------------|
--------0--------2-------------|--------0--3-----4-----4--------|--5--------------5--------------|
-----------------3-------------|--8-----------------------------|-----------------0-----4--------|
--3----------------------------|--------------------------------|--------3-----------------------|


  >     >        >     >                             >        >     >        >     >      
        |--3--|        |--3--|                                      |--3--|               
  E  E  E  E  E  E  E  E  E  E     E  E  E  E  E  E  E  E     E  E  E  E  E  E  E  E  E   
--3--1--------------1-----0-----|--------------------------|--0--------------------------|
-----------------0--------------|--------------------3--4--|-----1-----3--1--4--3--1--3--|
-----------2--3--0-----------0--|--7--6-----5-----5--3-----|--------2--------3-----------|
--0--------------------0--------|--5--------4--3-----------|--------2--------------1-----|
--------0-----------------------|--------------------------|-----------------------------|
-----------------0--------------|--5-----4-----3-----------|--1--------------2-----2-----|


                                      >              >                                    <      
        |--3--|  |--3--|  |--3--|           |--3--|                          |-3|                
  E  E  E  E  E  E  E  E  E  E  E     E  E  E  E  E  E  E  E  E     E  E  E  E  S S S S S Q      
--0--1-----3--4--6-----5--------5--|--8-----------------0--------|-----------------------------||
-----------------------------9-----|--7--------------------------|-----------0------4-4-4-4----||
--------0-----------------6--------|--5-----1--2--3--4--4-----5--|-----2--3-------4------------||
--------------------5--------------|-----------------3--3-----5--|--------------3--------------||
-----------------0-----------------|--5-----------------4-----3--|-----------4-----------------||
--3--------------------------------|-----------------3-----------|-----------------------------||  fine....

Login or Register to remove this ad.