Ads

Tenkiame (Aria the Animation) Guitar Tab

Submitted: Nov 18, 2013 by tomorning (Last updated: Nov 19, 2013)

5
Average: 5 (6 votes)
Download | Listen
Game: Aria the Animation
Composer(s): Choro Club, Takeshi Senoo, Mina Kubota
Style: Arrangement, Fingerstyle, Natural harmonics

AutoScroll: Slow | Medium | Fast
                                   Tenkiame
                                   (天気雨)
                       ~ from anime "ARIA The ANIMATION" ~


Music by Takeshi Senoo (妹尾武)
Tabber by to*morning

Standard Tuning

  Q=80
 3/4

|------------0--|-------------|--------------|------------|
|-0h2-0---0-----|-3--2-0-2----|-0----------0-|------------|
|-------2-------|-2------2----|-------1--2---|------------|
|---2-----------|-0------2----|----4--0------|-2----------|
|---0-----------|-------------|-6------------|-4--2-------|
|---------4-----|-2------0----|--------------|-------6----|


                                                       roll.....
|-------------0--|---------4--2--|-0----------|---------0------|
|-3---2---2------|-3---2---4-----|---2--------|-------0----3---|
|-------4--------|-------4-2-----|-0----2s=4--|-----1----------|
|---4-------2----|---4-----------|------1-----|---4------------|
|-2-------1------|-2-------3-----|-4----------|----------------|
|----------------|---------------|------2-----|-0--------------|


  a Tempo
|--------------0--|---------------|----------------|-------------9----|
|-0h2---0---0-----|-3--2-0-2------|-0------------0-|-------4-6s=10-12-|
|---------2-------|-2--2-------2--|---------1--2---|-6---4---------13-|
|-----2-----2-----|---------------|-1---4---0------|---6--------------|
|---0-------------|----------4----|-------2--------|-4----------------|
|-----------4-----|-2--1---0------|---2------------|------------------|



|-----------5s4-|-4s=2------2-0-|-0-------2-----|--------------||
|-12s10-----7s5-|-5s=3----------|---3-2-3-3-----|-0-----0------||
|-13s11---------|---------2-3---|-4----------1--|-----1---2----||
|---------7-----|-0-------------|-0-------------|---2-----2----||
|--9------------|-------4-------|---------------|-0-------4----||
|-------0-------|---------------|---------0-----|---------5----||



|-9---7--------12--|-10--9-7--9------|--------------|------------|
|-------10-12------|---------10------|-0----------0-|------------|
|---9--------------|--7------(9)-----|-------1--2---|------------|
|-7----------------|-----------------|----4--0------|-2----------|
|----------11------|--9---------7----|-6------------|-4--2--1----|
|------------------|--------------0--|--------------|------------|



|-------------0--|---------4--2--|-0-----------|-------0-----|
|-3---2---2------|-3---2---4-----|----2-----0--|----------3--|
|-------4--------|-------4-2-----|-0-----2-----|-4-----------|
|---4-------2----|---4-----------|-------1--3--|-2-----------|
|-2-------1------|-2-------3-----|-4-----------|-------------|
|----------------|---------------|-------2-----|----0--------|



|--------------0--|---------------|----------------|-------------9-----|
|-0h2---0---0-----|-3--2-0-2------|-0------------0-|-------4-6s=10-12--|
|---------2-------|-2--2-------2--|---------1--2---|-6---4---------13--|
|-----2-----2-----|---------------|-1---4---0------|---6---------------|
|---0-------------|----------4----|-------2--------|-4-----------------|
|-----------4-----|-2--1---0------|---2------------|-------------------|


                                                         q=40
                                                         fr\accel....
|-----------5s4-|-4s2------2-0-|-0-------2-----|-------------------||
|-12s10-----7s5-|-5s3----------|---3-2-3-------|-0-------------0---||
|-13s11---------|--------2-3---|-----2---1--1--|-------1-2---2-----||
|---------7-----|-0------------|---4-----2--0--|---0h2---2-2-------||
|--9------------|------4-------|-2----------2--|-0-------0---------||
|-------0-------|--------------|---------------|-------------------||


..a Tempo
|---2-------------|---0-------------|---2-------------|---0-----------|
|-2-----2---------|-0-----0---------|-2-----2---------|-0-----0-------|
|-----2-----2-----|-----2-----2-----|-----2-----2-----|-----2-----2---|
|---------4-----4-|---------4-----4-|---------4-----4-|---------4-----|
|-5-----------5---|-4-----------4---|-5-----------5---|-4-----------4-|
|-----------------|-----------------|-----------------|---------------|


                                      rit...............
|---0---0---------|---0---0---------|-------------------|-7----||
|-----3-----3-----|-----3-----3-----|----------7------7-|------||
|-2-------2-----2-|-0-------0-----0-|--------7------7---|------||
|-------------2---|-------------2---|-----11-----11-----|------||
|-3---------------|-1---------------|---9---------------|------||
|-----------------|-----------------|-7-----------------|------||



|-9--7--------12--|-10--9-7-9----|--------------|--------------||
|------10-12------|--------------|-0----------0-|-2-----1--3-4-||
|-----------------|--------------|-------1--2---|----3---------||
|-7---------------|--------------|----4--3------|-5-----3------||
|---------11------|--9--8---7----|-6------------|-------0------||
|-----------------|--------------|--------------|--------------||



|-------------1---|-----------------|----------------|------------8h10-8--|
|-3---1---1-------|-4---3-1-3-----3-|-1--------------|-----8--7-----------|
|-----2-3-----2---|---3-3-------2---|-----0---2--3-5-|-7--------7---------|
|---3-------3---3-|-----------3-----|-2-----2-1------|---7----7-----------|
|-1-------0-------|-----------------|---3------------|-5------------------|
|-----------------|-3---2---1-------|----------------|--------------------|


                                        roll...........................(q=60)...
|-8---6-------6-5-|-5---3-----3h4-3-1-|-1-------6------|----------------|
|-----3-----3-----|-------------------|---4-3-4-----4--|-4-3-2-3----3---|
|---0---3---------|---3---------------|-----------5----|-3-------3------|
|---------5---3---|-1-----------------|---------4------|-3-------2------|
|-----------------|-------1-2---------|-3--------------|----------------|
|-3---------------|-------------------|----------------|---------3------|


                                  rit.........................fr\accel.
|---------1-----1-|-6----5----|-9h10--8-6-----13--|-6--5-3-5--8---|
|-3-----3-----3---|-4---------|-----------13------|---------------|
|-----2-----2-----|-5---------|-------------------|---------------|
|---1-------------|-4---------|----8--------------|-5-------------|
|-----------------|-----------|-----------12------|--------8------|
|-1---------------|-----------|-------------------|---------------|


  a Tempo (q=80)
|-6-----------------|----------5---|-3--------------|-----------|
|--------8----------|-------6----6-|-4---4---4------|------3----|
|-----10----10---10-|-----5--------|-3-3-------3----|-2---------|
|---8----------8----|---8----------|-------5-----5--|-1---------|
|-6-----------------|-5------------|-3--------------|-----------|
|-------------------|--------------|----------------|-1---------|



|-------8-6------|-----------*|
|-----------6----|-----------*|
|-----7-------7--|----<7>----*|
|---7------------|----<7>----*|
|----------------|-----------*|
|-6--------------|-6---------*|fine.
Login or Register to remove this ad.

5 comments on Tenkiame

Nice, I like it

5

Nice, I like it

This is beatiful , how about

5

This is beautiful , how about Lumis Eterne next

Thanks reply, dekkai

Thanks reply, dekkai ganbarimasu.

very nice tab !

5

And a good training for my lazy fingers :D
Oh U must love these animes called Aria, u submitted a lot of tab of it.
I never saw one episode but since you just switch on my curiosity ^^
I'm gonna probably try at least the first ep., long time didn't watch some Japanese stuff T_T

rev2. Q E E Q

rev2.

       Q    E  E  Q    Q       Q    E  E  H           Q    Q    Q    E  E     Q    Q    H         
E||--------------------0----|----------------------|-----------------------|---------------------|
B||--0h2----0-----0---------|--3----2--0--2--------|--0-----------------0--|---------------------|
h||------------2------------|--2----------2--------|-----------------------|---------------------|
D||----2--------------------|--0----------2--------|-------4----6----7-----|--2------------------|
A||----0--------------------|----------------------|--6---------5----------|--4----2-------------|
E||---------------4---------|--2----------0--------|-----------------------|------------6--------|


  E  E  E  E  E  E  Q       E  E  E  E  Q    Q       Q    Q    Q     Q       E  E  E  E  Q    Q     
--------------------0----|--------------4----2----|--0--------------------|--------------0---------|
--3-----2-----2----------|--3-----2-----4---------|-------2---------------|-----------0-------3----|
-----------4-------------|-----------4--2---------|--0---------2s----4----|--------1---------------|
-----4-----------2-------|-----4------------------|------------1----------|-----4------------------|
--2-----------1----------|--2-----------3---------|--4--------------------|------------------------|
-------------------------|------------------------|------------2----------|--0---------------------|


    E  E  E  E  Q    Q       Q    E  E  E  E  Q       E  E  E  E  Q    E  E     E  E  E  E  Q      E   E   
---------------------0----|------------------------|-------------------------|---------------------9------|
--0h2-----0-----0---------|--3----2--0--2----------|--0-------------------0--|-----------4--6S----10--12--|
-------------2------------|--2----2-----------2----|--------------1----2-----|--6-----4---------------13--|
-------2--------2---------|------------------------|--1-----4-----0----------|-----6----------------------|
----0---------------------|----------------4-------|-----------2-------------|--4-------------------------|
----------------4---------|--2----1-----0----------|-----2-------------------|----------------------------|


   Q      Q    E  E  E   E     Q     Q    E  E  E  E     E  E  E  E  Q    Q       E  E  E  E  Q    E  E   
---------------------5s--4--|--4s----2----------2--0--|--0-----------2---------|-------------------------||
--12s----10----------7s--5--|--5s----3----------------|-----3--2--3--3---------|--0--------0----------0--||
--13s----11-----------------|----------------2--3-----|--4----------------1----|--------1-----2----2-----||
------------------7---------|--0----------------------|--0---------------------|-----2--------2----------||
---9------------------------|-------------4-----------|------------------------|--0-----------4----------||
---------------0------------|-------------------------|--------------0---------|--------------5----------||


  E  E  E  E  E  E  E  E     E  E  E  E  E  E  Q       Q    Q    Q    E  E     Q    Q    Q    E  E   
--------------------0-----|-------------------------|-----------------------|-----------------------|
--2-----0-----0-----------|--3-----2--0--2----------|--0-----------------0--|-----------------------|
-----------2--------------|--2-----2-----------2----|-----------------------|-----------------------|
-----2-----------2-----2--|-----0-----------2-------|-------4----6----7-----|--2-----------------0--|
--0-----------------------|-------------------------|--6---------5----------|--4----2---------------|
--------------4-----------|--2-----1-----0----------|-----------------------|------------6----------|


                                             |--3-|                                                    
  E  E  E  E  E  E  Q       E  E  E  E  Q    Q    E     Q    E  E  Q    Q       E  E  E  E  Q    Q     
--------------------0----|--------------4----2----4--|--0--------------------|------------------------|
--3-----2-----2----------|--3-----2-----4------------|-------2-----0----0----|--0--------0--3----0----|
-----------4-------------|-----------4--2------------|--0-------2------------|--------1-----1---------|
-----4-----------2-------|-----4---------------------|-------------1---------|--------4-----2---------|
--2-----------1----------|--2-----------3------------|--4--------------------|-----2------------------|
-------------------------|---------------------------|-------------2----1----|--0---------------------|


    E  E  E  E  Q    Q       Q    E  E  E  E  Q       E  E  E  E  Q    E  E     E  E  E  E  Q      E   E   
---------------------0----|------------------------|-------------------------|---------------------9------|
--0h2-----0-----0---------|--3----2--0--2----------|--0-------------------0--|-----------4--6S----10--12--|
-------------2------------|--2----2-----------2----|--------------1----2-----|--6-----4---------------13--|
-------2--------2---------|------------------------|--1-----4-----0----------|-----6----------------------|
----0---------------------|----------------4-------|-----------2-------------|--4-------------------------|
----------------4---------|--2----1-----0----------|-----2-------------------|----------------------------|


                                          >              >           >    >       >                         
   Q      Q    E  E  E   E     Q     Q    E  E  E  E     E  E  E  E  Q    Q       E  E   E  E  E  E  E  E   
---------------------5s--4--|--4s----2----------2--0--|--0-----------2---------|---------------------------||
--12s----10----------7s--5--|--5s----3----------------|-----3--2--3------------|--0---------------------0--||
--13s----11-----------------|----------------2--3-----|--------2-----1----1----|------------1--2-----2-----||
------------------7---------|--0----------------------|-----4--------2----0----|-----0h--2-----2--2--------||
---9------------------------|-------------4-----------|--2----------------2----|--0------------0-----------||
---------------0------------|-------------------------|------------------------|---------------------------||


  E  E  E  E  E  E  E  E     E  E  E  E  E  E  E  E     E  E  E  E  E  E  E  E     E  E  E  E  E  E  Q     
-----0--------2--------2--|-----0--------0--------0--|-----0--------2--------2--|-----0--------0----------|
--2--------2--------2-----|--0--------0--------0-----|--2--------2--------2-----|--0--------0--------0----|
--4-----4--------4--------|--------2--------2--------|--4-----4--------4--------|--------2--------2-------|
--0-----------------------|--------------------------|--0-----------------------|-------------------------|
--------------------------|--4-----------------------|--------------------------|--4----------------------|
--------------------------|--------------------------|--------------------------|-------------------------|


                                                        >                                               
  E  E  E  E  E  E  E  E     E  E  E  E  E  E  E  E     E  E  Q    Q    Q       E  E  E  E   A.H.
--------------0-----------|--------------------------|--------5----2---------|--------------<0>12------||
-----3-----3--------3-----|-----1--------1--------1--|--------3----3----3----|--0--------0-------------||
--2-----0--------2-----0--|--2--------2--------2-----|-----2-------2----2----|--------1----------------||
--------------------------|--------3--------3--------|------------------4----|--2-----4----------------||
--3-----------------------|--1-----------------------|--2--------------------|-----2-------------------||
--------------------------|--------------------------|-----------------------|--0----------------------||


  Q    E   E   Q     Q        Q    E  E  H           Q    Q    Q    E  E     Q    Q    Q    E  E   
--9----7------------12----|--10----9--7--9--------|-----------------------|-----------------------|
----------10--12----------|-----------------------|--0-----------------0--|--2---------1----3--4--|
--------------------------|-----------------------|------------1----2-----|-------3---------------|
--7-----------------------|-----------------------|-------4----3----------|--5---------3----------|
--------------11----------|---9----8-----7--------|--6--------------------|------------0----------|
--------------------------|-----------------------|-----------------------|-----------------------|


                                                                                             ^               
  E  E  E  E  E  E  E  E     E  E  E  E  E  E  E  E     E  E  E  E  Q    E  E     E  E  Q    E  E     E  E   
--------------------1-----|--------------------------|-------------------------|-------------------8h10--8--|
--3-----1-----1-----------|--4-----3--1--3--------3--|--1-------------------1--|--------8----7--------------|
--------2--3--------2-----|-----0--3-----------2-----|--------0-----2----3-----|--7-------------7-----------|
-----3-----------3-----3--|-----------------3--------|--2--------2--1----------|-----7-------7--------------|
--1-----------0-----------|--------------------------|-----3-------------------|--5-------------------------|
--------------------------|--3-----2-----1-----------|-------------------------|----------------------------|


                                        >                                        >                           
  E  E  E  E  E  E  E  E     E  E  Q    E  E  E  E     E  E  E  E  Q    Q        E  E   Q    E  E     E  E   
--8-----6-----------6--5--|--5-----3----------3--1--|-------------------8----|--11-----10----------8h10--8--|
--------3--------3--------|----------------3--------|--6--4--3--4--8---------|----------8-------------------|
-----0-----3--------------|-----3----------1--------|-----3--------8---------|------8-----------7-----------|
--------------5-----3-----|--1----------------------|--------5-----8---------|---------------0--------------|
--------------------------|-------------2-----------|--3---------------------|---0--------------------------|
--3-----------------------|-------------------------|--------------8---------|------------------------------|


                                        >                                                                   
  E  E  E  E  E  E  E  E     E  E  Q    E  E  E  E     E  E  E   E  S S S S Q       E  E  E  E  Q    E  E   
--8-----6-----------6--5--|--5-----3----------3--1--|--1------------6-------6----|--1----------------------|
--------3--------3--------|-------------------0-----|-----4--3h--4----------4----|-----------1--4-------1--|
-----0-----3--------------|-----3----------0--------|-----0--3------------3------|--------3----------3-----|
--------------5-----3-----|--1----------------------|-------------------3--------|-----1-------------------|
--------------------------|-------------2-----------|--3--------------3----------|-------------------------|
--3-----------------------|-------------------------|----------------------------|--2----------------------|


    Q    E  E  Q    Q       Q    E  E  Q    Q       E  E  E  E  E  E  E  E     E  E  E  E  E  E  E  E   
--------------------1----|-----------------------||--------------------------|--------------3-----------|
--2h3----1-----1---------|------------------1----||--------3-----------3-----|--------4-----------4-----|
------------3------------|--3----2--0--2---------||--3-----------3-----------|-----------3-----------3--|
-------------------------|-----------------------||-----3-----3-----3-----3--|-----5-----------5--------|
----1----------0---------|-----------------------||--1-----------------------|--------------------------|
-------------------------|--3----------1---------||--------------------------|--6-----------------------|


                                                        <      
  E  E  E  E  E  E  E  E     E  E  E  E  E  E  E  E     Q      
--------------------------|--------------------------|-------||
-----------3-----------3--|-----------4-----------4--|--3----||
--------3-----------3-----|--------3-----------3-----|--3----||
-----3-----------3--------|-----3-----------3--------|--3----||
--1-----------------------|--1-----------------------|--1----||
--------------------------|--------------------------|-------||   fine....

sample replay
https://youtu.be/hy8TwMg0wBg