Ads

Soshite Fune wa Iku (Aria the Animation) Guitar Tab

Submitted: Oct 25, 2015 by tomorning

5
Average: 5 (5 votes)
Download | Listen
Game: Aria the Animation
Composer(s): Choro Club, Takeshi Senoo, Mina Kubota
Style: Arrangement, Fingerstyle, Natural harmonics

AutoScroll: Slow | Medium | Fast
                                  Sosite Fune wa iku
                                   (そして舟はいく)
                           ~ from anime "Aria The Animation" ~

Music by Ou Akioka (秋岡欧) / Takesi Seno (妹尾武)
arranged by to*morning

Drop D

Lento

                                       NH             NH                NH                        
     Q    E   E   E   E   E   E        Q     E  E     Q     E   E       Q    Q     E   E  E   E   
E||----------17--16--14----------|----12----10--9----10----14--12--|----9-------------10--9------|
B||----------------------14--15--|----12-------------10------------|-------------------------12--|
G||------------------------------|---------------------------------|---------9----11-------------|
D||------------------------------|-----------------<>12------------|-----------------------------|
A||------------------------------|--<>12---------------------------|--<>7------------------------|
D||------------------------------|---------------------------------|-----------------------------|


                                                      >                        
   H         Q     Q       Q    E  E  E  E  E   E     E  E  E  E  E  E  E  E   
------------------------|--0-------5--4--2---------|--0--------------2--0-----|
--10--------------------|--0----------------2s--3--|--------3--2--3--------3--|
---9---------7----10----|--6----6-----2------------|--------4-----2-----------|
--10---------9----------|--7----------4------------|-----2--------4-----------|
---8--------10----------|--0-----------------------|--0-----------------------|
------------------------|--------------------------|--------------------------|


  Q    Q    E  E  E  E     H        Q    Q       Q    E  E  E  E  E  E     E  E  E  E  Q    E  E   
------------------------|-----------0---------|----------5--4--2--------|--0----------------2--0--|
--2------------3--2--0--|----------------3----|--2----2-----------2--3--|--------3--2--3----------|
------------------------|--2--------2---------|--2----------4--2--2-----|--------4-----2----------|
-------2----4-----------|--4--------3---------|--4----------------4-----|-----2--------4----------|
--0---------0-----------|---------------------|--0----------------------|--0----------------------|
------------------------|--0--------3---------|-------------------------|-------------------------|


  E  E  Q    E  E  E  E     E  E  Q    Q    Q       Q    E  E   E   E  E  E   
-------------------------|-------------0----1----|--0-------5---4---2--------|
--2-------------3--2--0--|-----------------------|--2----2------3------2--3--|
-----2-------2-----------|--2----------2---------|--2----------(2)-----------|
--------2----4-----------|--------3----3---------|--------------4------4-----|
--0----------------------|-----3-----------------|--0------------------0-----|
-------------------------|--3--------------------|---------------------------|


  E  E  E  E  E  E  E  E     E  E  Q    E  E  E  E     E  E  E  E  Q    Q     
--0--------------2--0-----|-------------------------|------------------------|
--------3--2--3--------3--|--2-------------3--2--0--|------------------------|
--------4-----2-----------|-----2----------2--------|--2---------------------|
-----2-----2--4-----------|--------2----3-----2--0--|--------4-----2----0----|
--0-----------------------|--0----------------------|-----0-----0------------|
--------------------------|-------------------------|--0-----------3---------|


  Q    Q      H             H        E   E  E  E     E  E  Q    E  E  E  E   
------------<>0--------|----------------10--9--7--|--5----------5-----------|
-------5---------------|--------------------------|----------------------6--|
-----------------------|--------------------------|--------7----------7-----|
-----------------------|--------------------------|-----7----------7--------|
--4--------------------|--------------------------|--9----------8-----------|
--7--------------------|--------------------------|-------------------------|


  E  E  E  E   E   E  E  E     E  E  Q    E  E  Q       E  E  E  E  E   E  E  E   
-----9------------10--9--7--|--5----------5----------|-----------------10--9--7--|
--------------10------------|-------------------6----|--5--------0---------------|
--9--------9----------0-----|--------7----------7----|--------6-----7------------|
--------7-------------------|-----7----------7-------|-----7---------------------|
--7-------------------------|--9----------8----------|--7-----------8------------|
----------------------------|------------------------|---------------------------|


  E  E  Q    E  E  E  E     E  E  E  E  E  E  E  E     Q    E  E  Q    E  E   
--5----------5--------2--|--7-----------0--8--7--0--|--5-------0--5----------|
--------2----------2-----|-----------0--3-----------|-------3----------------|
-----2----------3--------|--------0-----0-----------|--2----------2----0--2--|
--4----------5-----------|-----0--------------------|------------------------|
-------------------------|--3-----------------------|------------------------|
-------------------------|--------------------------|--3----------5----------|


  Q    E   E   E   E   E   E      E  E   E  E   Q     E   E     E  E  E  E  E   E  E  E   
--5-------17--16--14----------|--12-----10--9--10----14--12--|--9--------------10--9--7--|
----------------------14--15--|---------10-------------------|--------5-----7------------|
--4---------------------------|------9---------11------------|-----6-----6--7------------|
------------------------------|------------------------------|---------------------------|
--0---------------------------|---0--------------------------|--0------------------------|
------------------------------|------------------------------|---------------------------|


                                                        >                        
  E  E  Q    E  E  Q       E  E  E  E   E   E  E  E     E  E  E  E  E  E  E  E   
--5---------------------|--0--------5---4---2--------|--0--------------2--0-----|
-------------3-----6----|--------2------3------2--3--|--------3--2--3--------3--|
--------5----0-----7----|--------4-------------------|--------4-----2-----------|
--------3-------0-------|-----2--------(4)-----------|-----2--------4-----------|
-----3------------------|--0------------0------------|--0-----------------------|
--3----------5----------|----------------------------|--------------------------|


  Q    Q    E  E  E  E     E  E  E  E  E  E  Q       E  E  E  E  E  E  E  E   
------------------------|-------------------------|-----------------------5--|
--2------------3--2--0--|--------3-----1----------|--0-----------0-----5-----|
------------------------|--2-----------0-----2----|-----------2-----2--------|
-------2----4-----------|--------2--4-----3-------|--------2-----------------|
--0---------0-----------|-----0-------------------|-----0--------------------|
------------------------|--0-----------3----------|--2-----------------------|


  E  E  E  E  E  E  E  E     E  E  Q    Q.     E     E  E  E  E  E  E  E  E   
--3--2--------------------|-----------------------|--------------------------|
--------3-----------------|--0--------------------|--------------------------|
-----2-----2--0-----0--2--|--------2-----------2--|--0-----------------------|
--------4--------4--------|-------------2---------|-----4--0-----------------|
--------------------------|-----4-----------------|-----0-----0-----------0--|
--------------------------|--2--------------------|--2-----------5--4--5-----|


              <          
  H           H          
-----------<>12--------||
--0--------------------||
-----------------------||
--4--------------------||
-----------------------||
-----------------------|| fine.

Login or Register to remove this ad.

4 comments on Soshite Fune wa Iku

Beautiful Arrangement

5

Never heard of this anime.
The arrangement is very well done, very playable and beautiful!
I love the harmonics in the chords, I don't see that often.

"mochi-mochi-ponpon" you

"mochi-mochi-ponpon" you should see.
thanks reply.

Hey, you do rhythmic notation

5

Hey, you do rhythmic notation now! Awesome. Great tab

thanks reply!

thanks reply!